Finger Eleven - Good Times Chords & Tabs

 

Good Times Chords & Tabs

Finger Eleven Chords & Tabs

Version: 1 Type: Tab 1 rating
1 star 2 stars 3 stars 4 stars 5 stars
comments

Good Times Tab

   
Artist: Finger Eleven
Title: Good Times
Album: Finger Eleven
Tabbed by: br0dy st3wy
E-mail:Insane Riffs


Tuning: Db Ab Db Gb Bb eb



Intro
-|----------|-
-|----------|-
-|--0----0--|- 8x
-|--4--4----|-
-|--2-------|-
-|----------|-


Verse 1
-|----------|-      -|----------|-
-|----------|-      -|----------|-
-|--6-9/11--|- 4x   -|--0----0--|- 4x
-|--6-9/11--|-      -|--4--4----|-
-|--4-7/-9--|-      -|--2-------|-
-|----------|-      -|----------|-

Verse 2
-|----------|-      -|----------|-            -|----------|-
-|----------|-      -|----------|-            -|----------|-
-|--6-9/11--|- 4x   -|--0----0--|- 2x, then   -|--11------|-
-|--6-9/11--|-      -|--4--4----|-            -|--11--9--|-
-|--4-7/-9--|-      -|--2-------|-            -|---9--9--|-
-|----------|-      -|----------|-            -|---9--9--|-



Chorus 1
-|----------------------------------------------|-------------------|-
-|----------------------------------------------|-------------------|-
-|--4--7-7/9-9/11--4--7-76-6/9--4--7-7/9-9/11--|--14141414--14-14--|-
-|--4--7-7/9-9/11--4--7-76-6/7--4--7-7/9-9/11--|--14141414--14-14--|-
-|--2--5-5/7-7/-9--2--5-54-4/7--2--5-5/7-7/-9--|--12121212--12-12--|-
-|----------------------------------------------|-------------------|-

-|----------------------------------------------|-------------|-
-|----------------------------------------------|-------------|-
-|--4--7-7/9-9/11--4--7-76-6/9--4--7-7/9-9/11--|--11-7--7----|-
-|--4--7-7/9-9/11--4--7-76-6/7--4--7-7/9-9/11--|--11-7--7-7--|-
-|--2--5-5/7-7/-9--2--5-57-4/7--2--5-5/7-7/-9--|---9-5--5-7--|-
-|----------------------------------------------|----------7--|-



-|-----|-
-|-----|-
-|--0--|- Play this once, letting it ring,
-|--4--|- then go back to the next verse.
-|--2--|-
-|-----|-



Verse 3
-|----------|-      -|----------|-
-|----------|-      -|----------|-
-|--6-9/11--|- 4x   -|--0----0--|- 2x
-|--6-9/11--|-      -|--4--4----|-
-|--4-7/-9--|-      -|--2-------|-
-|----------|-      -|----------|-

Verse 4
-|----------|-      -|--0--|-
-|----------|-      -|--0--|-
-|--6-9/11--|- 4x   -|--2--|-
-|--6-9/11--|-      -|--2--|-
-|--4-7/-9--|-      -|--0--|-
-|----------|-      -|--2--|-



Chorus 2
-|----------------------------------------------|-------------------|-
-|----------------------------------------------|-------------------|-
-|--4--7-7/9-9/11--4--7-76-6/9--4--7-7/9-9/11--|--14141414--14-14--|-
-|--4--7-7/9-9/11--4--7-76-6/7--4--7-7/9-9/11--|--14141414--14-14--|-
-|--2--5-5/7-7/-9--2--5-54-4/7--2--5-5/7-7/-9--|--12121212--12-12--|-
-|----------------------------------------------|-------------------|-

-|----------------------------------------------|-------------|-
-|----------------------------------------------|-------------|-
-|--4--7-7/9-9/11--4--7-76-6/9--4--7-7/9-9/11--|--11-7--7----|-
-|--4--7-7/9-9/11--4--7-76-6/7--4--7-7/9-9/11--|--11-7--7-7--|-
-|--2--5-5/7-7/-9--2--5-57-4/7--2--5-5/7-7/-9--|---9-5--5-7--|-
-|----------------------------------------------|----------7--|-
[ Tab from: http://www.guitartabs.cc/tabs/f/finger_eleven/good_times_tab.html ]
-|----------------------------------------------|-------------------|-
-|----------------------------------------------|-------------------|-
-|--4--7-7/9-9/11--4--7-76-6/9--4--7-7/9-9/11--|--14141414--14-14--|-
-|--4--7-7/9-9/11--4--7-76-6/7--4--7-7/9-9/11--|--14141414--14-14--|-
-|--2--5-5/7-7/-9--2--5-54-4/7--2--5-5/7-7/-9--|--12121212--12-12--|-
-|----------------------------------------------|-------------------|-

-|----------------------------------------------|------|-
-|----------------------------------------------|------|-
-|--4--7-7/9-9/11--4--7-76-6/9--4--7-7/9-9/11--|--14--|-
-|--4--7-7/9-9/11--4--7-76-6/7--4--7-7/9-9/11--|--14--|-
-|--2--5-5/7-7/-9--2--5-57-4/7--2--5-5/7-7/-9--|--12--|-
-|----------------------------------------------|--12--|-



Bridge

Guitar 1
-|--0--0--|-
-|--0--0--|-
-|--5--2--|- 3x, then...
-|--5--2--|-
-|--3--0--|-
-|--5--2--|-

Guitar 2 starts playing this under Guitar 1's part after the 2nd time it's played.
-|-----------------------------|-
-|-----------------------------|-
-|--5--5/7-7/9--99-9/12121212--|- 5x
-|--x--x-x-x-x--99-9/12121212--|-
-|--3--3/5-5/7--77-7/10101010--|-
-|-----------------------------|-



Chorus 3
-|----------------------------------------------|-
-|----------------------------------------------|-
-|----------------------------------------------|-
-|----------------------------------------------|-
-|--2--5-5h7-7/9--2--5-54-4/7--2--5-5h7-7/9----|-
-|----------------------------------------------|-

-|----------------------------------------------|-
-|----------------------------------------------|-
-|--4--7-7/9-9/11--4--7-76-6/9--4--7-7/9-9/11--|-
-|--4--7-7/9-9/11--4--7-76-6/7--4--7-7/9-9/11--|-
-|--2--5-5/7-7/-9--2--5-54-4/7--2--5-5/7-7/-9--|-
-|----------------------------------------------|-

-|----------------------------------------------|-------------|-
-|----------------------------------------------|-------------|-
-|--4--7-7/9-9/11--4--7-76-6/9--4--7-7/9-9/11--|--11-7--7----|-
-|--4--7-7/9-9/11--4--7-76-6/7--4--7-7/9-9/11--|--11-7--7-7--|-
-|--2--5-5/7-7/-9--2--5-57-4/7--2--5-5/7-7/-9--|---9-5--5-7--|-
-|----------------------------------------------|----------7--|-

-|--------|-
-|--12v---|-
-|--------|- This starts quietly with the final part
-|--------|- of this chorus and slowly gets louder.
-|--------|-
-|--------|-
                                                                              


Solo played as 'Chorus 1' is played twice 
-|-------------------------------------------------------------------------|--
-|-------------------------------------------------------------------------|--
-|--18b--18b-*18b--18b-18b---------------------14br------------------------|--
-|-------------------------16v--1614-14h16-14-------16v-16v-16v-16p14/16--|--
-|-------------------------------------------------------------------------|--
-|-------------------------------------------------------------------------|--
             p.h.                                                             

-|---------------17b-------------------------------------------------------|--
-|--------------------18br-19v---------------------------------------------|--
-|--18b--18brb-------------------------------------------------------------|--
-|------------------------------16v--14p16h14-14/16v--16-18br--16v--1614--|--
-|-------------------------------------------------------------------------|--
-|-------------------------------------------------------------------------|--
                 12x                                                          

Sounds like they use a wah during the whole solo (especially on the bends),
so I can't be too sure about the solo, but it's a start....



Outro
-|----------|-
-|----------|-
-|--0----0--|- Play over and over
-|--4--4----|- until end of song.
-|--2-------|-
-|----------|-


End with this:
-|-----|-
-|-----|-
-|--4--|-
-|--4--|-
-|--2--|-
-|-----|-
Comments