Finger Eleven - First Time Chords & Tabs

 

First Time Chords & Tabs

Finger Eleven Chords & Tabs

Version: 7 Type: Tab 0 ratings
1 star 2 stars 3 stars 4 stars 5 stars
comments

First Time Tab

   
first time
finger eleven
Tabbed by KoRny Freak, kornytabs@hotmail.com

Tuning: Db Ab Db Gb Bb Eb

Main Riff (w/ Dist)
1:---------------------------------------------------------
2:---------------------------------------------------------
3:---------------------------------------------------------
4:-3--2--X-X--X-3--2--X-X--X-3--2--X-X--X------------------
5:-2--2--X-X--X-2--2--X-X--X-2--2--X-X--X--5p0-------------
6:-2--2--X-X--X-2--2--X-X--X-2--2--X-X--X------0--0--0--0--

Verse
(w/ Dist) "it's not that simple"
1:---------------------------------
2:---------------------------------
3:---------------------------------
4:-3-3-3-3-3-3-3-3-3-3-3-3-3-3-3-3-
5:-3-3-3-3-3-3-3-3-3-3-3-3-3-3-3-3-
6:-3-3-3-3-3-3-3-3-3-3-3-3-3-3-3-3-

Chorus (w/ Dist)
1:-------------------------------------------------
2:-------------------------------------------------
3:-------------------------------------------------
4:-9--7--X-X--X-3--2--X-X-5---3--X-X--X-3--2--3--2-
5:-7--7--X-X--X-2--2--X-X-3---3--X-X--X-2--2--2--2-
6:-7--7--X-X--X-2--2--X-X-3---3--X-X--X-2--2--2--2-
[ Tab from: http://www.guitartabs.cc/tabs/f/finger_eleven/first_time_tab_ver_7.html ]
1:-------------------------------------------------------
2:-------------------------------------------------------
3:-------------------------------------------------------
4:-9--7--X-X--X-9--9--X-X-5---3--X-X---------------------
5:-7--7--X-X--X-12-10-X-X-3---3--X-X----5p0--------------
6:-7--7--X-X--X-9--9--X-X-3---3--X-X--0-----0--0--0--0---

Riff A(w/ Dist)
1:------------------------------------------------------
2:------------------------------------------------------
3:-4-4-4-4-4-4-4-4-7-7-7-7-7-7-12---12--12--9---9--9--9-
4:------------------------------------------------------
5:-2-2-2-2-2-2-2-2-5-5-5-5-5-5-10---10--10--7---7--7--7-
6:------------------------------------------------------

1:-----------------------------------------------------
2:-----------------------------------------------------
3:-4-4-4-4-4-4-4-4-7-7-7-7-7-7-12---12--11-11--9--9--9-
4:-----------------------------------------------------
5:-2-2-2-2-2-2-2-2-5-5-5-5-5-5-10---10--9--9---7--7--7-
6:-----------------------------------------------------

Riff B (w/ Chorus, Delay and Volume Swell)
4:---------------------------------2------------------------------
5:-0--------------3-----------------------------------------------
6:----------------------------------------------------------------

Outro (w/ Dist)
1:-------
2:-------
3:-------
4:-3--2--
5:-2--2--
6:-2--2--



_________________________________________________________________________
Get Your Private, Free E-mail from MSN Hotmail at http://www.hotmail.com.



Comments