Finger Eleven - First Time Chords & Tabs

 

First Time Chords & Tabs

Finger Eleven Chords & Tabs

Version: 5 Type: Tab 0 ratings
1 star 2 stars 3 stars 4 stars 5 stars
comments

First Time Tab

	Song: First Time
	Band: Finger Eleven
	Album: the Greyest of Blue Skies
	Transcripted by: Ryan	very_sic@hotmail.com

	Must be in drop D tuning


	Intro
	(with distortion)
 |--------------------------------------------------|
 |--------------------------------------------------|
 |--------------------------------------------------|
 |-2-1--x-x-x--2-1--x-x-x--2-1--x-x-x---------------|
 |-1-1--x-x-x--2-1--x-x-x--2-1--x-x-x---------------|
 |-1-1--x-x-x--2-1--x-x-x--2-1--x-x-x--12-0-0-0-0-0-|

	Pre-Chorus 
 |--------------------------|
 |--------------------------|
 |--------------------------|
 |-2-2-2---2-2-2--2-2--2-2--|
 |-2-2-2---2-2-2--2-2--2-2--|
 |-2-2-2---2-2-2--2-2--2-2--|

[ Tab from: http://www.guitartabs.cc/tabs/f/finger_eleven/first_time_tab_ver_5.html ]
	Chorus
 |--------------------------------------------------------------------------------|
 |--------------------------------------------------------------------------------|
 |--------------------------------------------------------------------------------|
 |-6-6-x-x-x-1-1-1-x-x-2-2-2-2-x-x-1-1-1----6-6-x-x-x-8-8-x-x-2-2-2---------------|
 |-6-6-x-x-x-1-1-1-x-x-2-2-2-2-x-x-1-1-1----6-6-x-x-x-8-8-x-x-2-2-2---------------|
 |-6-6-x-x-x-1-1-1-x-x-2-2-2-2-x-x-1-1-1----6-6-x-x-x-8-8-x-x-2-2-2-12-0-0-0-0-0--|


	Interlude
|--------------------------------------------------------------------------------------|
|--------------------------------------------------------------------------------------|
|--------------------------------------------------------------------------------------|
|-3-3-3-3-3-3-3-6-6-6-6-6-6-------------------3-3-3-3-3-3-3-6-6-6-6-6-6----------------|
|-1-1-1-1-1-1-1-4-4-4-4-4-4-4--4--4--1--1--1--1-1-1-1-1-1-1-4-4-4-4-4-4-4--4--1-3-2-1--|
|---------------------------4--4--4--1--1--1----------------------------4--4--1-3-2-1--|

Comments