Finger Eleven - First Time Chords & Tabs

 

First Time Chords & Tabs

Finger Eleven Chords & Tabs

Version: 4 Type: Tab 0 ratings
1 star 2 stars 3 stars 4 stars 5 stars
comments

First Time Tab

   
        WWW.EXTREMETABS.COM

          URL: www.extremetabs.com
	EMAIL: extremetabsdotcom@hotmail.com

 ----------------------------------------------------------------------------------------------

	     SONG: First Time
	     BAND: Finger Eleven
	    ALBUM: The Greyest of Blue Skies
   TRANSCRIBED BY: gunnar deschamp ndeschamp@hotmail.com
	     DATE: may 4 2001

 ----------------------------------------------------------------------------------------------

	TUNING: drop d and down half a step (C#,G#,C#,F#,A#,D#)


     MAIN RIFF:

    ------------------------------------------------------ 
    ------------------------------------------------------ 
    ------------------------------------------------------ 
    -3--2--X-X--X-3--2--X-X--X-3--2--X-X--X----0--0--0--0-- 
    -2--2--X-X--X-2--2--X-X--X-2--2--X-X--X----0--0--0--0-- 
    -2--2--X-X--X-2--2--X-X--X-2--2--X-X--X-12-0--0--0--0-- 

     VERSE:

     no real guitar parts

     FILL:

    --------------------------------- 
    --------------------------------- 
    --------------------------------- 
    -3-3-3-3-3-3-3-3-3-3-3-3-3-3-3-3- 
    -3-3-3-3-3-3-3-3-3-3-3-3-3-3-3-3- 
    -3-3-3-3-3-3-3-3-3-3-3-3-3-3-3-3- 

     CHORUS:

    ------------------------------------------------- 
    ------------------------------------------------- 
    ------------------------------------------------- 
    -9--7--X-X--X-3--2--X-X-5---3--X-X--X-3--2--3--2- 
    -7--7--X-X--X-2--2--X-X-3---3--X-X--X-2--2--2--2- 
    -7--7--X-X--X-2--2--X-X-3---3--X-X--X-2--2--2--2- 
[ Tab from: http://www.guitartabs.cc/tabs/f/finger_eleven/first_time_tab_ver_4.html ]
    ---------------------------------------------------- 
    ---------------------------------------------------- 
    ---------------------------------------------------- 
    -9--7--X-X--X-9--9--X-X-5---3--X-X------------------ 
    -7--7--X-X--X-12-10-X-X-3---3--X-X------------------ 
    -7--7--X-X--X-9--9--X-X-3---3--X-X--0-12-0--0--0--0- 

    ------------------------------------------------ 
    ------------------------------------------------ 
    ------------------------------------------------ 
    -9--7--X-X-5---3--X-X-5---3--X-X--X-3--2--3--2-- 
    -7--7--X-X-2---2--X-X-3---3--X-X--X-2--2--2--2-- 
    -7--7--X-X-2---2--X-X-3---3--X-X--X-2--2--2--2-- 

    ---------------------------------------------------- 
    ---------------------------------------------------- 
    ---------------------------------------------------- 
    -9--7--X-X--X-9--9--X-X-5---3--3-3------------------ 
    -7--7--X-X--X-12-10-X-X-3---3--3-3------------------ 
    -7--7--X-X--X-9--9--X-X-3---3--3-3--0-12-0--0--0--0- 

     RIFF a:

    ------------------------------------------------------ 
    ------------------------------------------------------ 
    -4-4-4-4-4-4-4-4-7-7-7-7-7-7-12---12--12--9---9--9--9- 
    ------------------------------------------------------ 
    -2-2-2-2-2-2-2-2-5-5-5-5-5-5-10---10--10--7---7--7--7- 
    ------------------------------------------------------ 

    ----------------------------------------------------- 
    ----------------------------------------------------- 
    -4-4-4-4-4-4-4-4-7-7-7-7-7-7-12---12--11-11--9--9--9- 
    ----------------------------------------------------- 
    -2-2-2-2-2-2-2-2-5-5-5-5-5-5-10---10--9--9---7--7--7- 
    ----------------------------------------------------- 

     RIFF B:

    ---------------------------------------------------------------- 
    ---------------------------------------------------------------- 
    ---------------------------------------------------------------- 
    ---------------------------------2------------------------------ 
    -0--------------3----------------------------------------------- 
    ---------------------------------------------------------------- 

     ENDING:

    ------- 
    ------- 
    ------- 
    -3--2-- 
    -2--2-- 
    -2--2-- 



Comments