Finger Eleven - First Time Chords & Tabs

 

First Time Chords & Tabs

Finger Eleven Chords & Tabs

Version: 3 Type: Tab 0 ratings
1 star 2 stars 3 stars 4 stars 5 stars
comments

First Time Tab

#----------------------------------PLEASE NOTE--------------------------------#
#This file is the author's own work and represents their interpretation of the#
#song. You may only use this file for private study, scholarship, or research.#
#-----------------------------------------------------------------------------#
#-- File created with Instab - http://www.pconline.com/~smcarey/instab.html --#
#-----------------------------------------------------------------------------#

Author/Artist: Finger Eleven
Title: First Time
Transcribed by: Doobie
Email: death_knight_27@hotmail.com

this is the real version of the song......exactly played by finger eleven

------------------------------------------------------------------------------
------------------------------------------------------------------------------
------------------------------------------------------------------------------
-2-2---0-0-0---2-2---0-0-0---2-2---0-0-0---0----------------------------------
-2-2---0-0-0---2-2---0-0-0---2-2---0-0-0--------------------------------------
-2-2---0-0-0---2-2---0-0-0---2-2---0-0-0-----0-0-0-0-0------------------------
        p.m           p.m                              x2 then:               

------------------------------------------------------------------------------
------------------------------------------------------------------------------
------------------------------------------------------------------------------
-2-2---0-0-0---2-2---0-0------------------------------------------------------
-2-2---0-0-0---2-2---0-0------------------------------------------------------
-2-2---0-0-0---2-2---0-0------------------------------------------------------
        p.m          p.m                  pre chrous:                         

------------------------------------------------------------------------------
------------------------------------------------------------------------------
------------------------------------------------------------------------------
--3--33--33-3--33-3--33--33--3-33---------------------------------------------
--3--33--33-3--33-3--33--33--3-33---------------------------------------------
--3--33--33-3--33-3--33--33--3-33---------------------------------------------
  chorus:                                                                     
[ Tab from: http://www.guitartabs.cc/tabs/f/finger_eleven/first_time_tab_ver_3.html ]
------------------------------------------------------------------------------
------------------------------------------------------------------------------
-2-2--------------------------------------------------------------------------
-2-2---x-x---2-2---x-x---3-33---x-x-x---2-2-2-2-------------------------------
-0-0---x-x---2-2---x-x---3-33---x-x-x---2-2-2-2-------------------------------
-------x-x---2-2---x-x---3-33---x-x-x---2-2-2-2-------------------------------
                                                                              

------------------------------------------------------------------------------
------------------------------------------------------------------------------
-2-2---x-x---4-4---x-x--------------------------------------------------------
-2-2---x-x---4-4---x-x---3-33---0---------------------------------------------
-0-0---x-x---2-2---x-x---3-33-------------------------------------------------
-------------------------3-33-----0-0-0-0-0-----------------------------------
 pre-chorus                                    x 2                            

------------------------------------------------------------------------------
------------------------------------------------------------------------------
------------------------------------------------------------------------------
-3--33--33-3--33-3--33--33--3-33----------------------------------------------
-3--33--33-3--33-3--33--33--3-33----------------------------------------------
-3--33--33-3--33-3--33--33--3-33----------------------------------------------
 chorus:                                                                      

------------------------------------------------------------------------------
------------------------------------------------------------------------------
-22---------------------------------------------------------------------------
-22--x-x---2-2---x-x---3-33---x-x-x---2-2-2-2---------------------------------
-00--x-x---2-2---x-x---3-33---x-x-x---2-2-2-2---------------------------------
-----x-x---2-2---x-x---3-33---x-x-x---2-2-2-2---------------------------------
 guitar solo:                                                                 

------------------------------------------------------------------------------
------------------------------------------------------------------------------
-4-44--4-44--4/7--7-77/12-12-12---9-99--99------------------------------------
-4-44--4-44--4/7--7-77/12-12-12---9-99--99------------------------------------
-2-22--2-22--2/5--5-55/10-10-10---7-77--77------------------------------------
------------------------------------------------------------------------------
                                          x1 then add after 12/10 riff        

------------------------------------------------------------------------------
------------------------------------------------------------------------------
-11-11---9--9-99---10-10-10-10-10 10-10-10-10-10-10-10-----------------------------------------------
-11-11---9--9-99----8--8--8--8--8--8--8--8--8--8--8--8------------------------------------
--9--9---7--7-77--------------------------------------------------------------
------------------------------------------------------------------------------
                       then strum really fast....
well thats it have fun...........

Comments