Finger Eleven - First Time Chords & Tabs

 

First Time Chords & Tabs

Finger Eleven Chords & Tabs

Version: 2 Type: Tab 0 ratings
1 star 2 stars 3 stars 4 stars 5 stars
comments

First Time Tab

Finger Eleven – First Time
Tabbed By Schuster

Tuning down One step and a half

After intro
||-------------------------------------------||||--------------------||
||-------------------------------------------||||--------------------||
||-------------------------------------------||X2||------------------||
||-5-4-x-x-5-4-x-x-5-4-x-x-5-4-x-x-2-2-2-2-2-||||-5-4-x-x-5-4-x-x----||
||-4-4-x-x-4-4-x-x-4-4-x-x-4-4-x-x-2-2-2-2-2-||||-4-4-x-x-4-4-x-x----||
||-2-2-x-x-2-2-x-x-2-2-x-x-2-2-x-x-0-0-0-0-0-||||-2-2-x-x-2-2-x-x----||

Verse 
Played clean with a slow flanger
||-0-0-0----------||				
||-0-0-0----------|| 				
||-1-1-1----------||      Play a couple of times     
||-2-2-2---4-4-4--||				
||-2-2-2---4-4-4--||				
||-0-0-0---2-2-2--|| 				

Pre chorus
||----------------------||			
||----------------------||
|| ---------------------||
||-5-5-5-5-5-5-5-5-5-5--||
||-5-5-5-5-5-5-5-5-5-5--||
||-3-3-3-3-3-3-3-3-3-3--||

Chorus
||----------------------------------------------------------------------------------||
||----------------------------------------------------------------------------------||
||----------------------------------------------------------------------------------||X2
||-4-4-x-x-4-4-x-x-5-5-x-x-4-4-x-x-4-4-x-x-6-6-x-x-5-5-x-x-2-2-2-2-2------------------||
||-2-2-x-x-4-4-x-x-5-5-x-x-4-4-x-x-2-2-x-x-4-4-x-x-5-5-x-x-2-2-2-2-2----------------||
||-----x-x-2-2-x-x-3-3-x-x-2-2-x-x-----x-x-----x-x-3-3-x-x-0-0-0-0-0----------------||
[ Tab from: http://www.guitartabs.cc/tabs/f/finger_eleven/first_time_tab_ver_2.html ]
||----------------------------------------------------- -------------------------------||
||-------------------------------------------------------------------------------------||
||-6-6-6-6-6-6-6--9-9-9-9-9-9-14-14-14-14-14-11-11-11-11-11----------------------------||
||-------------------------------------------------------------------------------------||
||-4-4-4-4-4-4-4--7-7-7-7-7-7-12-12-12-12-12--9--9--9--9--9----------------------------||


||----------------------------------------------------- ------------------------------||
||------------------------------------------------------------------------------------||
||-6-6-6-6-6-6-6--9-9-9-9-9-9-14-14-14-14-14-13-13-11-11-11---------------------------||
||------------------------------------------------------------------------------------||
||-4-4-4-4-4-4-4--7-7-7-7-7-7-12-12-12-12-12-11-11--9---9---9-------------------------||
||------------------------------------------------------------------------------------||

The really slow part
Clean no distortion 

||------------------------------------------------------------------------------------||
||------------------------------------------------------------------------------------||
||------------------------------------------------------------------------------------||
||----------9-------------9-----------9-------------9---------------------------------||
||-7---10------7---10-----7---10-----7----10------------------------------------------||

Then at the end while the chorus is playing
||99999-10-10-10-10-10-10-21-21-21-21-22-22-22-22-22-22-then go off the neck||
||--------------------------------------------------------------------------||
||--------------------------------------------------------------------------|| 
||--------------------------------------------------------------------------||
||--------------------------------------------------------------------------||
||--------------------------------------------------------------------------||
Comments