Finger Eleven - First Time Chords & Tabs

 

First Time Chords & Tabs

Finger Eleven Chords & Tabs

Version: 1 Type: Bass Tab 0 ratings
1 star 2 stars 3 stars 4 stars 5 stars
comments

First Time Bass Tab

#----------------------------------PLEASE NOTE--------------------------------#
#This file is the author's own work and represents their interpretation of the#
#song. You may only use this file for private study, scholarship, or research.#
#-----------------------------------------------------------------------------#
#-- File created with Instab - http://www.pconline.com/~smcarey/instab.html --#
#-----------------------------------------------------------------------------#

Author/Artist: Finger Eleven
Title: First Time
Album: Greyest of Blue Skies
Transcribed by: Bryan Jarvinen
Email: ibanezgsr200bass@yahoo.com

OK this is a great song. Finger Eleven is a great band. This song is easy (for me
at least) but sounds awesome when played along with the CD or with other people.
Have fun with this song, you can mix in your own slides or whatever you want to.
Oh ya, this is on Drop-D tuning.

Intro -

-|--------------------------------------------|-
-|--------------------------------------------|-
-|--------------------------------------------|-
-|-2-2-x-x-x-2-2-x-x-x-2-2-x-x-x-12-0-0-0-0-0-|-
                                                                              
Verse -

-|---------------------------------------|-
-|---------------------------------------|-
-|---------------------------------------|-
-|-0-0-0-0-0-0-0h1/3-3-3-3-3-3/5-5-5/7-0-|-
                                                                              
Pre-Chorus -

-|---------------------------------|-
-|---------------------------------|-
-|---------------------------------|-
-|-3-3-3-3-3-3-3-3-3-3-3-3-3-3-3-3-|-
            
Chorus -                                                                  
[ Tab from: http://www.guitartabs.cc/tabs/f/finger_eleven/first_time_btab.html ]
-|--------------------------------------------------------------------------|-
-|--------------------------------------------------------------------------|-
-|--------------------------------------------------------------------------|-
-|-7-7-x-x-x-2-2-x-x-3-3-x-x-x-2-2-2-2-7-7-x-x-x-2-2-x-x-3-3-x-x-x-12-0-0-0-|-
                                                                             
-|--------------------------------------------------------------------------|-
-|--------------------------------------------------------------------------|-
-|--------------------------------------------------------------------------|-
-|-0-0-7-7-x-x-9-9-x-x-3-3-x-x-x-2-2-2-2-7-7-x-x-x-2-2-x-x-3-3-x-x-x-12-0-0-|-
                                                                              
-|-------|-
-|-------|-
-|-------|-
-|-0-0-0-|-
                                                                              
Interlude - (I seperated the two main ways to play it, but you can mix it around
             if you want to, it still will sound good.)

-|---------------------------------------------------------------|-----------|-
-|---------------------------------------------------------------|-----------|-
-|-2-2-2-2-2-2-2-2-5-5-5-5-5-5-10-10-10-10-10-10-7-7-7-7-7-7-7-7-|-2-2-2-2-2-|-
-|---------------------------------------------------------------|-----------|-
                                                                              
-|-------------------------------------------------|-
-|-------------------------------------------------|-
-|-2-2-2-5-5-5-5-5-5-10-10-10-10-10-10-9-9-7-7-7-7-|-
-|-------------------------------------------------|-
                                                                              
And there you have it. Practice it a couple times and you should get it down.


Comments