Finger Eleven - Famous Chords & Tabs

 

Famous Chords & Tabs

Finger Eleven Chords & Tabs

Version: 1 Type: Tab 0 ratings
1 star 2 stars 3 stars 4 stars 5 stars
comments

Famous Tab

Music X Tabs [http://www.mxtabs.net]
Title: Famous
Artist: Finger Eleven
Tuning: Drop D, down half step (C#)
Transcribed By: Tyler Schmidt  ironfist311@hotmail.com

*This song, like all F11 songs, has 2 guitars throughout. 
I only have this tabbed out for one guitar, it might be missing some stuff.*

Intro
e------0---1---0--------0----
b----1---1---1---1----1------
g--2----------------2--------
d-----------------3-------2~-
a--0-------------------------
d----------------------------

Prechorus (just the chords)
e------------
b------------
g-2--4--0--2-
d-3--5--2--3-
a-3--5--2--3-
d-3--5--2--3-
[ Tab from: http://www.guitartabs.cc/tabs/f/finger_eleven/famous_tab.html ]
Chorus
e------------------------------------------------------------
b------------------------------------------------------------
g--2-2-x-5--5-5-5------------------------------------5-5-x-7-
d--2-2-x-5--5-5-5--5-5-x-5--5-5-5--0-0-0-x-5--5-5-5--5-5-x-7-
a--0-0-x-3--3-3-3--3-3-x-2--2-2-2--0-0-0-x-3--3-3-3--3-3-x-5-
d------------------3-3-x-2--2-2-2--0-0-0-x-3--3-3-3----------

Verse 2
e-----------------------------
b--------6-6--5-5~------------
g--2--------------------------
d--2-----------------7~---5~--
a--0--------------------------
d-----------------------------

Bridge
e---------------------
b-3-------------------
g-2-------------------
d-0--5----------------
a-0--2--5--6--8--6--5-
d-0--2----------------

Soft Pre-Chorus
e---------------
B---------------
G-2---4---0---2-
D---------------
A---------------
D---------------

I am in the process of tabbing out all Finger Eleven songs off of both albums. If you'd like me to do any certain one, please e-mail me at ironfist311@hotmail.com


Comments