Finger Eleven - Drag You Down Chords & Tabs

 

Drag You Down Chords & Tabs

Finger Eleven Chords & Tabs

Version: 9 Type: Tab 0 ratings
1 star 2 stars 3 stars 4 stars 5 stars
comments

Drag You Down Tab

   
Band: Finger Eleven
Song: Drag You Down
Tunning: Drop Db (Db Ab Db Gb Bb Eb)

Intro
eb|--------------------------|         |-------------------------|
Bb|--------------------------|         |-------------------------|
Gb|--------------------------|         |-----------------------7-|
Db|----7------------7------7-|repeat x3|---7------------7------7-|
Ab|-----------10-------------|         |----------10-----------5-|
Db|--7---10-8-----7---10-8---|         |-7---10-8-----7---10-8---|

Verse
eb|--------------------|
Bb|--------------------|
Gb|----7-7-7-----7-7-7-|
Db|----7-7-7-----7-7-7-|play this between the breaks of singing
Ab|----5-5-5-----5-5-5-|
Db|--0-------0-1-------|
[ Tab from: http://www.guitartabs.cc/tabs/f/finger_eleven/drag_you_down_tab_ver_9.html ]
Pre-Chorus
eb|--------------|
Bb|--------------|
Gb|----5-4---5-4-|
Db|--------------|
Ab|--5-----2-----|
Db|--------------|

Chorus
eb|--------------------------------------------|
Bb|--7--7--7-----------------------------------|
Gb|--7--7--7--------------7--7--7--------------|
Db|--0--0--0--1--1--0--1--7--7--7--3--3--3--1--|repeat x4
Ab|--0--0--0--1--1--0--1--5--5--5--3--3--3--1--|
Db|--0--0--0--1--1--0--1--5--5--5--3--3--3--1--|

Verse 2
eb|-------------|
Bb|-------------|
Gb|-------------|
Db|-x-x-x-x-x-x-|play this during "Teething Biting"
Ab|-x-x-x-x-x-x-|
Db|-x-x-x-x-x-x-|

Repeat Chorus

Repeat Intro for however many times it's played.

Repeat Chorus

And that's it!  I am pretty damn sure that this is right.
It is very easy so play and have fun.
Comments