Finger Eleven - Drag You Down Chords & Tabs

 

Drag You Down Chords & Tabs

Finger Eleven Chords & Tabs

Version: 4 Type: Tab 0 ratings
1 star 2 stars 3 stars 4 stars 5 stars
comments

Drag You Down Tab

Its been posted before but this one is better than the rest. yea listen to the song.
all the parts are here except the second guitar at the end..but thats
no biggie (Finger Eleven doesn't even play that part live) ENJOY!


eb|------------------------------------------------------
bb|------------------------------------------------------
gb|----2-----0----2-------2------------------------------
db|-------------------------------------------------------
ab|-0----3-1----0---3--1------------------------------
Db|----------------------------------------------------

(last time)                                 Verse

eb|------------------0---------) |-----------------0-0----
bb|------------------0---------) |-----------------0-0----
gb|------2-----------2---------) |----7-7-7------7-7-7----
db|------------------0---------) |----7-7-7------7-7------
ab|----0-----3---1---1---------) |-0--5-5-5------5-6------
Db|----------------------------) |-0---------0-1----------

      "The perfect sound.....of middle ground..."

eb|------------------------------------------------
bb|-------6-5---------6-5--------------------------
gb|------------------------------------------------
db|------------------------------------------------
ab|-----5---------5--------------------------------
Db|------------------------------------------------


[ Tab from: http://www.guitartabs.cc/tabs/f/finger_eleven/drag_you_down_tab_ver_4.html ]
                            CHORUS

eb|-------------------------------------------
bb|-------------------------------------------
gb|-7-7-7--------------7-7-7------------------
db|-7-7-7--3-3--0-1----7-7-7--3-3--0-1--------
ab|-0-0-0--3-3--0-1----5-5-5--3-3--0-1--------
Db|-0-0-0--3-3--0-1----5-5-5--3-3--0-1--------


           SOLO


eb|------------------------------------------------------------------------------------------------------------
bb|-----------------------------------------------------------------------10-----------------------8---7---10~~
gb|--6-7-6-7-6-7-6-7-6-7-9-10-6-7-6------------------------9h10p9-7-9-9-10---10-9-10-7-9-6-7-6-------9---7-----
db|---------------------------------8-7-10-8-10-8-7-10-8-10------------------------------------8-7-------------
ab|------------------------------------------------------------------------------------------------------------
Db|------------------------------------------------------------------------------------------------------------


      "Biting and teething and bleeding.."

            (palm mute)
eb|------------------------------------------------Back to chorus
bb|------------------------------------------------
gb|------------------------------------------------
db|--7-7-7-7-7-7-7--5-5-5-5-5-5-5--0-0-0-0-0-0-0-0-
ab|--7-7-7-7-7-7-7--5-5-5-5-5-5-5--0-0-0-0-0-0-0-0-
Db|--7-7-7-7-7-7-7--5-5-5-5-5-5-5--0-0-0-0-0-0-0-0-
Comments