Finger Eleven - Drag You Down Chords & Tabs

 

Drag You Down Chords & Tabs

Finger Eleven Chords & Tabs

Version: 3 Type: Tab 0 ratings
1 star 2 stars 3 stars 4 stars 5 stars
comments

Drag You Down Tab

Artist: Finger Eleven	
Song: Drag You Down
Album: The Greyest of Blue skies
Tabbed by: KoLeEnA
Email: colina99@home.com
[ Tab from: http://www.guitartabs.cc/tabs/f/finger_eleven/drag_you_down_tab_ver_3.html ]
Riff 1:
E:-------------------------------------------------------
B:-------------------------------------------------------
G:----1---------------1-----------1----------------------
D:--------------4----------------------------------------
A:-------2-0----------------2-0--------------------------
E:-4----------------4------------------------------------
B:-------------------------------------------------------
Riff 2
E:-------------------------------------------------------
B:-------------------------------------------------------
G:-------------------------------------------------------
D:-----66666-------6666----------------------------------
A:-----44444-------4444----------------------------------
E:-------------------------------------------------------
B:--2----------2-3---------------------------------------
Riff 3
E:-------------------------------------------------------
B:------5--4------5--4-----------------------------------
G:-------------------------------------------------------
D:--4-----------4----------------------------------------
A:-------------------------------------------------------
E:-------------------------------------------------------
B:-------------------------------------------------------
Riff 4
E:-------------------------------------------------------
B:-------------------------------------------------------
G:-------------------------------------------------------
D:-------------------------------------------------------
A:-------------------------------------------------------
E:--444-666-4-----666-999-777----------------------------
B:--222-444-2-----444-777-555----------------------------
Riff 5
E:-------------------------------------------------------
B:-------------------------------------------------------
G:-------------------------------------------------------
D:-------------------------------------------------------
A:--555555-444444----------------------------------------
E:--333333-222222-5-5-5-5-5-5-5-5------------------------
B:----------------3-3-3-3-3-3-3-3------------------------
Riff 6
E:-------------------------------------------------------
B:-------------------------------------------------------
G:-5-6-5-6-5-6-5-6-5-6-8-9-5-6-8-9-----------------------
D:---------------------------------7-7-7-9-7-9-6-7-------
A:-------------------------------------------------------
E:-------------------------------------------------------
B:-------------------------------------------------------
Riff 6 (continued)
E:-------------------------------------------------------
B:-----------------9-------------------------------------
G:-8-8-9-8-6-8-8-9---9-8-6-------------------------------
D:-------------------------------------------------------
A:-------------------------------------------------------
E:-------------------------------------------------------
B:-------------------------------------------------------

Order: 
Riff 1 x4
Riff 2 x4
Pause
Riff 2 x2
Pause
Riff 2 x2
Riff 3 x1
Riff 4 x4
Riff 2 x4
Pause
Riff 2 x2
Pause
Riff 2 x2
Riff 3 x1
Riff 4 x4
Riff 1 x2
Riff 6 x1
Riff 5 x1
Riff 4 xTill End

Comments