Finger Eleven - Drag You Down Chords & Tabs

 

Drag You Down Chords & Tabs

Finger Eleven Chords & Tabs

Version: 4 Type: Bass Tab 0 ratings
1 star 2 stars 3 stars 4 stars 5 stars
comments

Drag You Down Bass Tab

Finger Eleven
"Drag you down"
Album : Greyest of Blue Skies
DarkKarma17@aol.com

Tunning:BEAD

Verse
|----------------------------|-----------------|
|---------------------------*|-----------------|
|---------------------------*|-----------------|
|--2---2-3--XXX--2--2-3--XXX-|-9-8-7-6-5-4-3-2-|
[ Tab from: http://www.guitartabs.cc/tabs/f/finger_eleven/drag_you_down_btab_ver_4.html ]
Chorus
|--------------------------------|
|--------------------------------|
|--------------------------------|
|-2-2-2-3-3-3-2-2--7-7-5-5-3-3-3-|

Solo
|-------------------------------|
|------6------4-------6------6--|
|---4----7--5------4----7--5----|
|-------------------------------|

Bridge
|----------------------------|
|----------------------------|
|----------------------------|
|--888888--777777--222XX222--|
Comments