Finger Eleven - Costume For A Gutterball Chords & Tabs

 

Costume For A Gutterball Chords & Tabs

Finger Eleven Chords & Tabs

Version: 3 Type: Bass Tab 0 ratings
1 star 2 stars 3 stars 4 stars 5 stars
comments

Costume For A Gutterball Bass Tab

-Intro-
Gb|---------------|
Db|---------------|
Ab|-11-11-11-11---| (x4)
Eb|---------------|
Bb|-------------9-|

-Verse 1-
Gb|---------------|
Db|---------------|
Ab|-11-11-11-11---|
Eb|---------------|
Bb|-------------9-|

-Chorus- 
Gb|-------------------------------------|
Db|-------------------------------------|
Ab|-------------------------------------| (x2)
Eb|-1-1-3-3-----------1-1-3-3-----5-5-5-| 
Bb|---------4-4-4-3-2---------2-2-------|

Gb|--------------------------------|
Db|--------------------------------|
Ab|--------------------------------| (x2)
Eb|-3-3-3-3-5-5-5-5/----------8-10-|
Bb|-----------------6-6-6-6-6------|

Gb|-----------------|
Db|-----------------|
Ab|-----------------|
Eb|-4-4-4-4-----6-6-|
Bb|---------6-6-----|

-Verse 2-
Gb|---------------|
Db|---------------|
Ab|-11-11-11-11---|
Eb|---------------|
Bb|-------------9-|

-Chorus- 
Gb|-------------------------------------|
Db|-------------------------------------|
Ab|-------------------------------------| (x2)
Eb|-1-1-3-3-----------1-1-3-3-----5-5-5-| 
Bb|---------4-4-4-3-2---------2-2-------|

Gb|--------------------------------|
Db|--------------------------------|
Ab|--------------------------------| (x2)
Eb|-3-3-3-3-5-5-5-5/----------8-10-|
Bb|-----------------6-6-6-6-6------|

Gb|-----------------|
Db|-----------------|
Ab|-----------------|
Eb|-4-4-4-4-----6-6-|
Bb|---------6-6-----|
[ Tab from: http://www.guitartabs.cc/tabs/f/finger_eleven/costume_for_a_gutterball_btab_ver_3.html ]
-Bridge-
Gb|--------------------------------------------------------------------|
Db|--------------------------------------------------------------------|
Ab|--------------------------------------------------------------------|
Eb|--------------------------------------------------------------------|
Bb|-3-1-3--3-1-3--3-1-3--3-1-3---4---3-1-3---4---3-1-3---4---3-1-3---4-|

Gb|---------------------------------------------------------------|
Db|---------------------------------------------------------------|
Ab|---------------------------------------------------------------|
Eb|---------6--6-6------------------------------------------------|
Bb|-3-1-3-----------4---3-1-3---4---3-1-3---4---3-1-3---4---3-1-3-|

Gb|-----------------------------------------------|
Db|-----------------------------------------------|
Ab|-----------------------------------------------|
Eb|-6--6-6--6--6-----6-----------6--4-4-4-4-4-4-4-|
Bb|---------------2-----2--2--0-------------------|

-Chorus- 
Gb|-------------------------------------|
Db|-------------------------------------|
Ab|-------------------------------------| (x2)
Eb|-1-1-3-3-----------1-1-3-3-----5-5-5-| 
Bb|---------4-4-4-3-2---------2-2-------|

Gb|--------------------------------|
Db|--------------------------------|
Ab|--------------------------------| (x3)
Eb|-3-3-3-3-5-5-5-5/----------8-10-|
Bb|-----------------6-6-6-6-6------|

Gb|-----------------|
Db|-----------------|
Ab|-----------------|
Eb|-4-4-4-4-----6-6-|
Bb|---------6-6-----|

-Outro-
Gb|---------------|
Db|---------------|
Ab|-11-11-11-11---|
Eb|---------------|
Bb|-------------9-|
Comments