Finger Eleven - Conversations Chords & Tabs

 

Conversations Chords & Tabs

Finger Eleven Chords & Tabs

Version: 1 Type: Bass Tab 0 ratings
1 star 2 stars 3 stars 4 stars 5 stars
comments

Conversations Bass Tab

Band- Finger Eleven
Song- Conversations

Tuning: CGCF (He uses a 5-string but this will do)

*-Let Note Ring

Intro x4
F|-------------------------------|
C|-----8-80-6-8----8-0-67-8------|
G|-------------------------------|
C|-8-8-----------8---------------|

Verse 1 x2
F|-----------------------------------------------|
C|-88888888--------------------------------------|
G|-------------99999999----66666666888899999999--|
C|-----------------------------------------------|

Verse 2 x2
F|----------------------------------------------------------|
C|-886886888688868-443443443--43---64346434-98689868--------|
G|--------------------------46--46-------------------6*-6-6-|
C|----------------------------------------------------------|

Chorus x4
F|-----------------------------------|
C|-----------------------------------|
G|-4-4-4-4-4-4-4-4-6-6-6-6/18-15-----|
C|-----------------------------------|
[ Tab from: http://www.guitartabs.cc/tabs/f/finger_eleven/conversations_btab.html ]
Post-Chorus
F|-------------------|
C|-------------------|
G|-1-43-1-43---------|
C|-----------1*------|

Repeat Verse 2 x3
Repeat Chorus x4
Repeat Post-Chorus x1
Repeat Intro x4

Fill 1
F|----------------------|
C|----------------8-88--|
G|-6-66-8-88-9-99-------|
C|----------------------|

Repeat Intro Once
Repeat Fill 1 Once
Repeat Intro Once
Repeat Fill 1 Once

Fill 2
F|----------------1/6-66--|
C|------------------------|
G|-6-66-8-88-9-99---------|
C|------------------------|

Fill 3
F|------------------------------------------------|
C|------------------------------------------------|
G|-6-66-8-88/18-9-99-6-66/18-66/18-66/18-66-6-6---|
C|------------------------------------------------|

Repeat Chorus x4

Coda x4
F|--------------------|
C|--------------------|
G|-1-43-1-43----------|
C|-----------1-8-6----|

Slide up to 18 on G on 2nd

End With
F|--------------------|
C|--------------------|
G|-66666-6-66-6-66----|
C|--------------------|
Comments