Finger Eleven - Bones And Joints Chords & Tabs

 

Bones And Joints Chords & Tabs

Finger Eleven Chords & Tabs

Version: 2 Type: Bass Tab 0 ratings
1 star 2 stars 3 stars 4 stars 5 stars
comments

Bones And Joints Bass Tab

   
Band- Finger Eleven
Song- Bones And Joints

Tunning:B,E,A,D
Verse

D|------------|
A|------------|
E|------------|
B|--0-4--2-4--|

Prechorus

"I'm colliding, I"m not minding, the pain...."

D|-----------------------------------|
A|-----------------------------------|
E|-----------------------------------|
B|-2-2-4-4-4-5-5-5-5-12-12--12-12-12-|

Chorus
[ Tab from: http://www.guitartabs.cc/tabs/f/finger_eleven/bones_and_joints_btab_ver_2.html ]
D|---------------------|
A|---------------------|
E|---------------------|
B|--7-3-2---7-11-4-8-8-|

Bridge

"And you lost what made you you..."

until "I will leave you..." where there is no bass

D|-------------------|
A|-------------------|
E|-------------------|
B|-7-3-1-4-2-4-2-4-7-|


End bridge with...

D|-----------|
E|-----------|
A|-----------|
B|--7--3--1~-|

Chorus

D|---------------------|
E|---------------------|
A|---------------------|
B|--7-3-2---7-11-4-8-8-|
Comments