Finger Eleven - Bones And Joints Chords & Tabs

 

Bones And Joints Chords & Tabs

Finger Eleven Chords & Tabs

Version: 1 Type: Bass Tab 0 ratings
1 star 2 stars 3 stars 4 stars 5 stars
comments

Bones And Joints Bass Tab

Finger Eleven
"Bones and Joints"
Tunning : BEAD

DarkKarma17@aol.com

as always, it's just a foundation...the rhythm is up to you

Verse
|------------|
|------------|
|------------|
|--0-4--2-4--|
[ Tab from: http://www.guitartabs.cc/tabs/f/finger_eleven/bones_and_joints_btab.html ]
Prechorus
"I'm colliding, I"m not minding, the pain...."
|-----------------------------------|
|-----------------------------------|
|-----------------------------------|
|-2-2-4-4-4-5-5-5-5-12-12--12-12-12-|

Chorus
|---------------------|
|---------------------|
|---------------------|
|--7-3-2---7-11-4-8-8-|

Bridge
"And you lost what made you you..."
until "I will leave you..." where there is no bass

|-------------------|
|-------------------|
|-------------------|
|-7-3-1-4-2-4-2-4-7-|

End bridge with...
|-----------|
|-----------|
|-----------|
|--7--3--1~-|

Chorus again...

Comments