Finger Eleven - Awake And Dreaming Chords & Tabs

 

Awake And Dreaming Chords & Tabs

Finger Eleven Chords & Tabs

Version: 3 Type: Tab 0 ratings
1 star 2 stars 3 stars 4 stars 5 stars
comments

Awake And Dreaming Tab

   
Finger Eleven
Album : Tip
"Awake and Dreaming"
Nick Halm (original version)

Dylan Presley (DarkKarma17@aol.com) (edited version, chord corrections, added lyrics, voicings, etc...)

Tuning: Eb Ab Db Gb Bb Eb
Tune one 1/2 step down

This is in my opinion the best F11 to play on acoustic...

All chords are voiced as they would be if this were tunned standard
but are really another half step down...so a G is really F#...etc...

Verse Chords

  Cadd9  Em7   A?       C     Em7 
|---3----3----------------------------|
|---3----3--------3-------(3)-----3---|
|---0----0------2----------0------0---|
|---2----2----2----------2--(2)--2----|
|---3----2--0----------3-------2------|
|--------0----------------------------|

Chorus Chords

C(add9) Em C(add9) G Dsus  A?  Em7 C   A?
|------------------3-----------0-----------|
|---1-------1------3---3---0---3---1---0---|
|---0---0---0------0---2---2---0---0---2---|
|---2---2---2------0---0---2---2---2---2---|
|---3---2---3------2-------0---2---3---0---|
|-------0----------3-----------0-----------|



Cadd9                    Em7         A?                    Cadd9      Em7             
	Can't lose anything, so what's left is mine, and I win this time
Cadd9                 Em7       A?                       Cadd9          Em7   
      Consolation day, I'll make up a way, I'll know now just what to say

C               Em
  And I'll get away from you

C       G       Dsus2     A?  
Wait and I'll be begging

A?                Em7(or Em just depends if you strum the whole chord)          
And I'll get away from you
C        
and pull you down
A?
and pull you down


***Note on this verse the rhythm guitar (acoustic) comes in and plays the chords noted, quietly at first, gets louder towards end of verse, stays in through next chrous if you play it louder with a friend it gives depth****

Cadd9               Em7       A?         Cadd9       Em7
    Saw it all again  faded memory    became clear to me
Cadd9                     Em7        A?                 Cadd9        Em7
    I try but I can't say, that I'm your's for good, support me, you said you would

C               Em
  And I'll get away from you

C       G       Dsus2     A?  
Wait and I'll be begging

A?                Em          
And I'll get away from you
C        
and pull you down
A?
and pull you down
[ Tab from: http://www.guitartabs.cc/tabs/f/finger_eleven/awake_and_dreaming_tab_ver_3.html ]
|------6h7h6h7h6h7------|
|-----------------------|
|-----------------------|    Just play with it as you would the intro to 
|-----------------------|	Condenser (except with volume swell)
|-----------------------|
|-----------------------|
               

   
|----------------------------| 
|----------------------------| 
|------------7-7--5-5--2-22--| 
|---22-------7-7--5-5--2-22--| 
|---22-9/10--5-5--3-3--0-00--| 
|---00-----------------------|
             X2

OR....(there both as easy, but depending how you switch between the Em, and the D will determine which is the easiest for you)
|----------------------------| 
|----------------------------| 
|------------7-7--5-5--2-22--| 
|---22--4/5--7-7--5-5--2-22--| 
|---22-------5-5--3-3--0-00--| 
|---00-----------------------|

|----7---7---7---7---7b/8--||---12-12---12----12-12---12---| 
|--5---5---5---5---5-------||-12-----12----12-------12--12-|
|--------------------------||------------------------------|
|--------------------------||------------------------------|
|--------------------------||------------------------------|
|--------------------------||------------------------------|


|------------------------| 
|------------------------| 
|--------7-7--5-5--2-22--| 
|---22---7-7--5-5--2-22--| 
|---22---5-5--3-3--0-00--| 
|---00-------------------|

Sometimes I'll throw this in because it sounds cool
|-------------------------| 
|-------------------------| 
|-----------7--5-5--2-22--| 
|---22--9/7-7--5-5--2-22--| 
|---22--7/5-5--3-3--0-00--| 
|---00--------------------|


         Em  D   C   A
	|-------------------| 
	|-------------------| 
	|-------7---5---2---| 
	|---2---7---5---2---| 
	|---2---5---3---0---| 
	|---0---------------|
Em   D   C   A            Em    D      C    A
Awake and Dreaming        But I'm only sleeping
Em   D   C   A            Em    D      C    A
Awake and dreaming 	  But I'm only sleeping  
           
    A   Em      C   G   D       C   A (or X022XX)       
|-----------|---------------|-----------|
|-----------|---------------|-----------|
|---2-------|---5-------7---|---5-------|
|---2---2---|---5---5---7---|---5---7---|
|---0---2---|---3---5---5---|---3---7---|
|-------0---|-------3-------|-------5---|


A            Em               C        G       D
And I'll get away from you....wait and I'll be begging
A            Em                C                    A
And I'll get away from you....and pull you down, and pull you down

Again play around with that condenserish part and these riffs
|----7---7---7---7---7b/8--||---12-12---12----12-12---12---| 
|--5---5---5---5---5-------||-12-----12----12-------12--12-|
|--------------------------||------------------------------|
|--------------------------||------------------------------|
|--------------------------||------------------------------|
|--------------------------||------------------------------|

end with the chorus again ("Awake and Dreaming...")
ends on Em D (let ring)
Comments