Finch - Without You Here Chords & Tabs

 

Without You Here Chords & Tabs

Finch Chords & Tabs

Version: 5 Type: Tab 0 ratings
1 star 2 stars 3 stars 4 stars 5 stars
comments

Without You Here Tab

Band: Finch
Song: Without You Here (Acoustic)
Guitar Tab by Rookiedc401@cox.net

This is my first tab and damn it took forever!!
Up strokes aren't included in the counts.

Tuning:  STANDARD  EADGBE  NOT FLAT NOR D TUNING!!!!

Note:  THIS IS THE ACOUSTIC VERSION NOT THE ALBUM VERSION
/= slide

Intro/Verse  x2
|-----------------------------------------------|
|-----------------------------------------------|
|-8--------8---8---9----------------------------|
|-x--------x---x---x----------------------------|
|-7--------4---6---7----------------------------|
|-0--------0---4---0----------------------------|
    x12     x6  x6  x12

Verse x1
|----------------------------------------------|
|----------------------------------------------|
|-8--------8---8-------------------------------|
|-x--------x---x-------------------------------|
|-7--------4---6-------------------------------|
|-0--------0---4-------------------------------|
    x12     x6  x6

Pre-Chorus x1

|--------------------------------------------------|
|--------------------------------------------------|
|-9------9/11--11---11/13--13----13/16---16----0---|
|-x------x/x---x-----x/x----x-----x/x-----x----0---|
|-7------7/9---9-----9/11--11----11/14---14----0---|
|-0------0/0---0-----0/0----0-----0/0-----0----0---|
   x6           x6           x6            x7   x1

Chorus x2

|------------------------------------------------------------------|
|------------------------------------------------------------------|
|-4----4/8----8----8/3----3-----4---x---4---4/8---8---8/3---3------|
|-x----x/x----x----x/x----x-----x---x---x---x/x---x---x/x---x------|
|-2----2/6----6----6/1----1-----2---x---2---2/6---6---6/1---1------|
|-0----0/0----0----0/0----0-----0---x---0---0/0---0---0/0---0------|
   x8          x3          x4    x3  x2  x4        x3        x4

2nd Verse x1
[ Tab from: http://www.guitartabs.cc/tabs/f/finch/without_you_here_tab_ver_5.html ]
|-----------------------------------------------|
|-----------------------------------------------|
|-8--------8---8---9----------------------------|
|-x--------x---x---x----------------------------|
|-7--------4---6---7----------------------------|
|-0--------0---4---0----------------------------|
    x12     x6  x6  x12

2nd part of 2nd Verse x1

|----------------------------------------------|
|----------------------------------------------|
|-8--------8---8-------------------------------|
|-x--------x---x-------------------------------|
|-7--------4---6-------------------------------|
|-0--------0---4-------------------------------|
    x12     x6  x6

Pre-Chorus x1

|--------------------------------------------------|
|--------------------------------------------------|
|-9------9/11--11---11/13--13----13/16---16----0---|
|-x------x/x---x-----x/x----x-----x/x-----x----0---|
|-7------7/9---9-----9/11--11----11/14---14----0---|
|-0------0/0---0-----0/0----0-----0/0-----0----0---|
   x6           x6           x6            x7   x1

Chorus x2

|------------------------------------------------------------------|
|------------------------------------------------------------------|
|-4----4/8----8----8/3----3-----4---x---4---4/8---8---8/3---3------|
|-x----x/x----x----x/x----x-----x---x---x---x/x---x---x/x---x------|
|-2----2/6----6----6/1----1-----2---x---2---2/6---6---6/1---1------|
|-0----0/0----0----0/0----0-----0---x---0---0/0---0---0/0---0------|
   x8          x3          x4    x3  x2  x4        x3        x4

Bridge x1

|----------|
|----------|
|-9-----0--|
|-x-----0--|
|-7-----0--|
|-0-----0--|
   x15   x1

Final Chorus x3

|--0---0---0---0-------0---0---0----|
|--0---0---0---0-------0---0---0----|
|--4---0---1---0---x---0---1---0----|
|--4---0---2---0---6---0---2---0----|
|--2---0---2---0---6---0---2---0----|
|--0---0---0---0---4---0---0---0----|
    x7      x7      x7      x7

Final Chorus x1

|--0---0---0---0-------0---0---0------0--|
|--0---0---0---0-------0---0---0------0--|
|--4---0---1---0---x---0---1---0------4--|
|--4---0---2---0---6---0---2---0------4--|
|--2---0---2---0---6---0---2---0------2--|
|--0---0---0---0---4---0---0---0------0--|
    x7      x7      x7      x7         x1

Short and sweet!
Holler if its major!
Comments