Finch - Without You Here Chords & Tabs

 

Without You Here Chords & Tabs

Finch Chords & Tabs

Version: 2 Type: Tab 0 ratings
1 star 2 stars 3 stars 4 stars 5 stars
comments

Without You Here Tab

This tab isn't hard at all, but i know i have some mistakes so if you know what they are correct them Thanxx.

Intro

E -----------------------------------------------------|
B -----------------------------------------------------|
G -7-7-7-7-7-7-7-7-7-7-7-7----8-8-8-8-8-8-8-8-8-8-8-8--|
D -7-7-7-7-7-7-7-7-7-7-7-7----8-8-8-8-8-8-8-8-8-8-8-8--|
A -5-5-5-5-5-5-5-5-5-5-5-5----6-6-6-6-6-6-6-6-6-6-6-6--|
E -----------------------------------------------------|


E -----------------------------------------------------|
B -----------------------------------------------------|
G -7-7-7-7-7-7-7-7-7-7-7-7----8----8-8-8-8-------------|
D -7-7-7-7-7-7-7-7-7-7-7-7----8----8-8-8-8-------------|
A -5-5-5-5-5-5-5-5-5-5-5-5----6----6-6-6-6-------------|
E -----------------------------------------------------|

E -----------------------------------------------------|
B -----------------------------------------------------|
G -10----10-10-10-10----12----12-12-12-12--------------|
D -10----10-10-10-10----12----12-12-12-12--------------|
A --8-----8--8--8--8----10----10-10-10-10--------------|
E -----------------------------------------------------|

E -----------------------------------------------------|
B -----------------------------------------------------|
G -15----15-15-15-15-----------------------------------|
D -15----15-15-15-15-----------------------------------|
A -13----13-13-13-13-----------------------------------|
E -----------------------------------------------------|

Chorus
[ Tab from: http://www.guitartabs.cc/tabs/f/finch/without_you_here_tab_ver_2.html ]
E -----------------------------------------------------| 
B -----------------------------------------------------|
G -5-5-5-5-5-5----0-0-0-0-0-0----3-3-3-3-3-3-----------|
D -5-5-5-5-5-5----1-1-1-1-1-1----3-3-3-3-3-3-----------|
A -3-3-3-3-3-3----1-1-1-1-1-1----1-1-1-1-1-1-----------|
E -x-x-x-x-x-x-----------------------------------------|

E ----------------------------|
B ----------------------------|
G ----------------------------|
D -3-3-3-3-3-3----------------|
A -3-3-3-3-3-3----------------|
E -1-1-1-1-1-1----------------|

Repeat chorus 5 times

** GO BACK TO INTRO AFTER CHORUS**


Outro
 Palm muted
E ----------------------------------------------------|
B ----------------------------------------------------|
G -3-3-3-3-3-3-3-3-3-3-3-3----------------------------|
D -3-3-3-3-3-3-3-3-3-3-3-3----------------------------|
A -1-1-1-1-1-1-1-1-1-1-1-1----------------------------|
E ----------------------------------------------------|
 Am I loosing you, am i loosing You.....

E ----------------------------------------------------|
B ----------------------------------------------------|
G -3-3-3-3-3-3-3-3-3-3-3-3-3-3----0-0-0-0-0-0-0-0-0-0-|
D -3-3-3-3-3-3-3-3-3-3-3-3-3-3----1-1-1-1-1-1-1-1-1-1-|
A -1-1-1-1-1-1-1-1-1-1-1-1-1-1----1-1-1-1-1-1-1-1-1-1-|
E ----------------------------------------------------|

E ----------------------------------------------------|
B ----------------------------------------------------|
G ----------------------------0-0-0-0-0-0-0-0-0-0-0-0-|
D -5-5-5-5-5-5-5-5-5-5-5-5----1-1-1-1-1-1-1-1-1-1-1-1-|
A -5-5-5-5-5-5-5-5-5-5-5-5----1-1-1-1-1-1-1-1-1-1-1-1-|
E -3-3-3-3-3-3-3-3-3-3-3-3----------------------------|

Repeated and grows softer and softer



I know that this isn't exactly right this is my 
first tab and i played it by ear. Hope it helps you out, email me if 
it is wrong, please don't be mean i'm sorry if i messed up.
JudyRuiz89@msn.com
Comments