Finch - Without You Here Chords & Tabs

 

Without You Here Chords & Tabs

Finch Chords & Tabs

Version: 1 Type: Bass Tab

Without You Here Bass Tab

Intro No Bass 
Verse 1 
Gb|----------------------------------| 
Db|----------------------------------| 
Ab|----2-------2--------2-------2----| 
Eb|-0-0--0~-0-0---0~-0-0--0~-0-0--0~-| 

Gb|-------------------------------------|----| 
Db|-----6~------6~----------------------|----| 
Ab|-4-44-4-4-44--4----------------------|----| 
Eb|----------------44444444444444444444-|-0~-| 

Chorus 
Gb|-------------------------------------| 
Db|-------------------------------------| 
Ab|-------------------22222222----------| 
Eb|-44444444-00000000----------22222222-| 

Gb|-------------------------------------| 
Db|-------------------------------------| 
Ab|-------------------22222222----------| 
Eb|-4444xxxx-00000000----------22222222-| 
[ Tab from: http://www.guitartabs.cc/tabs/f/finch/without_you_here_btab.html ]
Verse 2 
Gb|----------------------------------------------| 
Db|--------------6~------6~----------------------| 
Ab|----2-----4-44-4-4-44--4----------------------| 
Eb|-0-0--0~-----------------44444444444444444444-| 

Gb|----------------------------------| 
Db|----------------------------------| 
Ab|----2-------2--------2-------2----| 
Eb|-0-0--0~-0-0---0~-0-0--0~-0-0--0~-| 

Gb|----------------------------------------| 
Db|-----6~------6~-------------------------| 
Ab|-4-44-4-4-44--4-------------------------| 
Eb|----------------44444444444444444444-0~-| 

Outro 
Gb|----|------------------------------------------| 
Db|----|*-----------------------------------------| 
Ab|----|*-2-22-2-22-2-22-2222---------------------| 
Eb|-0~-|----------------------0-00-0-00-0-00-0000-| 

Gb|------------------------------------------|| 
Db|-----------------------------------------*|| 
Ab|-----------------------------------------*|| 
Eb|-4-44-4-44-4-44-4444-0-00-0-00-0-00-0000--|| 

Verse 1 x2 
Chorus x2 
Verse 2 x1 
Chorus x2 
Outro x6 and Fade