Finch - What It Is To Burn Chords & Tabs

 

What It Is To Burn Chords & Tabs

Finch Chords & Tabs

Version: 8 Type: Tab 0 ratings
1 star 2 stars 3 stars 4 stars 5 stars
comments

What It Is To Burn Tab

   
-------------------------------------------------------------------------------
			     What it is to burn-Finch
-------------------------------------------------------------------------------
Tabbed by Sean Mahoney

Db Ab Db Gb Bb eb dropped D down a flat
This song is 100% correct, it sounds perfectly from the “what it is to burn” album.
I arranged it for one guitar. Have fun.

^ palm mute  /slide up   \slide down  * harmonic           
                                  

Intro-  light distortion and rapid tremolo effect(tremolo bar)
                                                       (“ SHE…..
e|---------------------------------------------------------------------------|
B|---------------------------------------------------------3--w/bar----------|
G|---7------6-----7-----4----6----7--------6----7----------2-----------------|
D|---x------x-----x-----x----x----x----7---x----x----5-----0-----------------|
A|---5------4-----5-----2----4----5----x---4----5----x-----0-----------------|
E|-------------------------------------7-------------5-----0-----------------|

Part 1 
 BURNS!! ”)
e|-----------------------------------------------------------------------------|
B|--3--3--3--3--3--3--3--3-----------------------------------------------------|
G|--2--2--2--2--2--2--2--2-----6--6--6--6--7--7-----4--4--4--4--4--4--4--4--4--|
D|--0--0--0--0--0--0--0--0--0--x--x--x--x--x--x--0--4--4--4--4--4--4--4--4--4--|
A|--0--0--0--0--0--0--0--0--0--4--4--4--4--5--5--0--2--2--2--2--2--2--2--2--2--|
E|--0--0--0--0--0--0--0--0--0--------------------------------------------------|


e|--------------------0--0--0--0--0--0--0--0--0------------------------------|
B|--------------------0--0--0--0--0--0--0--0--0------------------------------|
G|--6--6--6--6--7--7-----2--2--2--2--2--2--2--2--6--6--6--6--7--7--7--7------|
D|--x--x--x--x--x--x-----2--2--2--2--2--2--2--2--x--x--x--x--x--x--x--x------|
A|--4--4--4--4--5--5-----0--0--0--0--0--0--0--0--4--4--4--4--5--5--5--5------|
E|---------------------------------------------------------------------------|

1st ending
e|---------------------------------------------------------------------------|
B|---------------------------------------------------------------------------|
G|---7--7--7--7--7--7--7--6--6--6--6--6--6--6--6--6--6-----------------------|
D|---5--5--5--5--5--5--5--5--5--5--5--5--5--5--5--5--5-----------------------|
A|---5--5--5--5--5--5--5--5--5--5--5--5--5--5--5--5--5-----------------------|
E|---5--5--5--5--5--5--5--5--5--5--5--5--5--5--5--5--5-----------------------|

2nd ending
e|---------------------------------------------------------------------------|
B|-------------------------------------------7*------------------------------|
G|---7--7--7--7--7--7--7--6--6--6------------7*------------------------------|
D|---5--5--5--5--5--5--5--5--5--5------------7*------------------------------|
A|---5--5--5--5--5--5--5--5--5--5--55--5--5----------------------------------|
E|---5--5--5--5--5--5--5--5--5--5--55--5--5----------------------------------|

                                   ^^  ^  ^
Play Part 1, 2 times….playing the first ending first, and then to the second after repeating

Part 2           (“Today’s on fire………
e|---------------------------------------------------------------------------|
B|---------------------------------------------------------------------------|
G|-7--7--6--6--6--6--6--6--9--9--9--7--7--6--6--6--6--6--6--6--6--6--6--6----|
D|-7--7--7--7--7--7--7--7--7--7--7--7--7--7--7--7--7--7--7--7--7--7--7--7----|
A|-5--5--5--5--5--5--5--5--5--5--5--5--5--5--5--5--4--4--4--4--4--4--4--4----|
E|---------------------------------------------------------------------------|
   ^  ^  ^  ^  ^  ^  ^  ^  ^  ^  ^  ^  ^  ^  ^  ^  ^  ^  ^  ^  ^  ^  ^  ^

e|---------------------------------------------------------------------------|
B|---------------------------------------------------------------------------|
G|--9--9--9--7--7-----6--6--6--6--6--6--6--6--6--6--6--7--6--6--7------------|
D|--7--7--7--7--7--7--7--7--7--7--7--7--7--7--7--7--7--7--7--7--7------------|
A|--4--4--4--4--4--4--5--5--5--5--5--5--5--5--5--5--5--5--5--5--5------------|
E|--------------------5--5--5--5--5--5--5--5--5--5--5--5--5--5--5------------|
    ^  ^  ^  ^  ^  ^  ^  ^  ^  ^  ^  ^  ^  ^  ^  ^  ^  ^  ^  ^  ^
[ Tab from: http://www.guitartabs.cc/tabs/f/finch/what_it_is_to_burn_tab_ver_8.html ]
e|---------------------------------------------------------------------------|
B|---------------------------------------------------------------------------|
G|--6--6--6--6--6--6--6--6--6--6--6--6--6--6--6-----6--7--6--7--6--------7---|
D|--7--7--7--7--7--7--7--7--7--7--7--7--7--7--7--0--7--7--7--7--7--7--7--7---|
A|--5--5--5--5--5--5--5--5--5--5--5--5--5--5--5--0--5--5--5--5--5--5--5--5---|
E|--5--5--5--5--5--5--5--5--5--5--5--5--5--5--5------------------------------|
    ^  ^  ^  ^  ^  ^  ^  ^  ^  ^  ^  ^  ^  ^  ^  ^  ^  ^  ^  ^  ^  ^  ^  ^

    (“I walk these lines…….
e|----------------------------------------------------------------------------|
B|----------------------------------------------------------------------------|
G|-9--9--9--7--7--6--6--7--------6--6--6--6--6--6--9--9--9--7---6--6--6-------|
D|-7--7--7--7--7--7--7--7--7--7--7--7--7--7--7--7--7--7--7--7---7--7--7-------|
A|-5--5--5--5--5--5--5--5--4--4--4--4--4--4--4--4--4--4--4--4---4--4--4-------|
E|----------------------------------------------------------------------------|
                           ^  ^  ^  ^  ^  ^  ^  ^

e|----------------------------------------------------------------------------|
B|-------------------------------------------5--------------------------2-----|
G|-------6-----6---------7p6-----6--------6--6--2--2--2--2--2--2--2--2--2-----|
D|-7--7--7-----7---------7-------7--7--7--7--7--2--2--2--2--2--2--2--2--2-----|
A|-5--5--------5-----55-------------5--5--------0--0--0--0--0--0--0--0--0-----|
E|-5--5-----5--5--5--55-------5-----5--5--------------------------------------|
   ^  ^     ^     ^  ^^       ^     ^  ^        ^  ^  ^  ^  ^  ^  ^  ^



Now you play Part 1 once, and do the 2nd ending………then you Part 2 once,
then repeat Part 1 again and then play this..
e|----------------------------------------------------------------------------|
B|----------------------------------------------------------------------------|
G|-7--7--7--7--7--7--7--7-----------------------------------------------------|
D|-5--5--5--5--5--5--5--5-----------------------------------------------------|
A|-5--5--5--5--5--5--5--5-----------------------------------------------------|
E|-5--5--5--5--5--5--5--5-----------------------------------------------------|
 

Then the bass plays for a bit, then the 2nd guitar plays this with tremolo effect
(tremolo bar)
e|----------------------------------------------------------------------------|
B|--------------------------------(-----play twice------)---------------------|
G|-----------------11\9/11\7-------/14\12---11\9---11\7-----------------------|
D|------------------x----x-----------x-------x------x-------------------------|
A|------------------9\7/-9\5-------/12\10----9\7----9\5-----------------------|
E|--------------------------------(---------------------)---------------------|

1st guitar

e|-----------------------------------------------------------------------------|
B|----------------------------------(---------play twice-------------)---------|
G|-141414141414141414121212121212121299999999977777777777777777777777----------|
D|----------------------------------(--------------------------------)---------|
A|-----------------------------------------------------------------------------|
E|-----------------------------------------------------------------------------|
   ^^^^^^^^^^^^^^^^^^^^^^^^^^^^^^^^^^^^^^^^^^^^^^^^^^^^^^^^^^^^^^^^^^

2nd guitar
e|-----------------------------------------------------------------------------|
B|-------------------------7--7-w/bar------------------------------------------|
G|--/14\12-11/12-11\9-11\5-----------------------------------------------------|
D|----x-----x-----x----x-------------------------------------------------------|
A|--/12\10--9/10--9\7--9\5-----------------------------------------------------|
E|-----------------------------------------------------------------------------|

1st guitar
e|-----------------------------------------------------------------------------|
B|-----------------------------------------------------------------------------|
G|--9999999999999999-----------------------------------------------------------|
D|-----------------------------------------------------------------------------|
A|-----------------------------------------------------------------------------|
E|-----------------------------------------------------------------------------|

Then you play Part 1 for the rest of the song I think ending with this chord for
a few measures with a lot of feedback 
e|-----------------------------------------------------------------------------|
B|--3--------------------------------------------------------------------------|
G|--2--------------------------------------------------------------------------|
D|--0--------------------------------------------------------------------------|
A|--0--------------------------------------------------------------------------|
E|--0--------------------------------------------------------------------------|

That’s it for the song really. If you hear some higher chords being played,
it’s the 2nd guitar I think. Email me at sk8rmsm1@msn.com if you have an questions
or comments.
Comments