Finch - What It Is To Burn Chords & Tabs

 

What It Is To Burn Chords & Tabs

Finch Chords & Tabs

Version: 1 Type: Bass Tab 0 ratings
1 star 2 stars 3 stars 4 stars 5 stars
comments

What It Is To Burn Bass Tab

Artist:	Finch
Song:	What it is to Burn

Chorus

---------------------------------|---------------------------------|
---------------------------------|---------------------------------|
-4-4-4-4-4-4-4-4-4-4-4-4-4-4-4-4-|---------------------------------|
---------------------------------|-6-6-6-6-6-6-6-6-6-6-6-6-6-6-6-6-|

---------------------------------|---------------------------------|
---------------------------------|---------------------------------|
---------------------------------|---------------------------------|
-4-4-4-4-4-4-4-4-4-4-4-4-4-4-4-4-|-2-2-2-2-2-2-2-2-2-2-2-2-2-2-2-2-|



Riff 1

---------------------------------|---------------------------------|
---------------------------------|---------------------------------|
-4-4-4-4-4-4-4-4-4-4-4-4-4-4-4-4-|-3-3-3-3-3-3-3-3-3-3-3-3-3-3-3-3-|
---------------------------------|---------------------------------|
[ Tab from: http://www.guitartabs.cc/tabs/f/finch/what_it_is_to_burn_btab.html ]
---------------------------------|---------------------------------|
---------------------------------|---------------------------------|
-1-1-1-1-1-1-1-1-1-1-1-1-1-1-1-1-|-1-1-1-1-1-1-1-1-1-1-1-1-1-1-1-1-|
---------------------------------|---------------------------------|


Riff 2

---------------------------------|---------------------------------|
---------------------------------|---------------------------------|
-4-4-4-4-4-4-4-4-4-4-4-4-4-4-4-4-|-3-3-3-3-3-3-3-3-3-3-3-3-3-3-3-3-|
---------------------------------|---------------------------------|

---------------------------------|---------------------------------|
---------------------------------|---------------------------------|
-1-1-1-1-1-1-1-1-1-1-1-1-1-1-1-1-|-3-3-3-3-3-3-3-3-3-3-3-3-3-3-3-3-|
---------------------------------|---------------------------------|


Structure:

Chorus 2x (during the strings part as the bass)
Chorus 2x (when the whole band comes in)
Riff 1 1x
Riff 2 1x
Chorus 2x
Riff 1 1x
Riff 2 1x
Chorus 2x
Riff 1 1x
Riff 2 1x
Chorus 4x

I donít know if itís completely right, but Iíll fix it up as I work on it.
Any corrections will be helpful (not corrections that involve ďdude, you suck!Ē).
Comments