Finch - Waiting Chords & Tabs

 

Waiting Chords & Tabs

Finch Chords & Tabs

Version: 1 Type: Tab 0 ratings
1 star 2 stars 3 stars 4 stars 5 stars
comments

Waiting Tab

Artist - Finch 
Title - Waiting (not sure what album the song is from, its just kinda online...)
Drop D Tuning

MeAgainstMe665 - Aim 
Questions, Comments, Snide Remarks?

Guitar 1
E---------------------------------------------------
B---------------------------------------------------
G-------------7------4------7------4---------4------
D----------------55-----55----55-----55---7---7-5---
A---------------------------------------------------
D---------------------------------------------------

Guitar 2 (comes in after the ABOVE is played twice)
E---------------------------------------------------
B---------------------------------------------------
G---------------------------------------------------
D--444444444444444444444444666666666666666666666----
A--444444444444444444444444666666666666666666666----
D--444444444444444444444444666666666666666666666----

Guitar 1 and 2
E---------------------------------------------------
B---------------------------------------------------
G--7-6-7-6-7-6-7------------------------------------
D----------------4444444444444444444444444----------
A----------------4444444444444444444444444----------
D----------------4444444444444444444444444----------

Chorus (Guitar 1)
E---------------------------------------------------
B---------------------------------------------------
G-----------------------------------6666666666------
D----444444444-666666666-1111111111-6666666666------
A----444444444-666666666-1111111111-4444444444------
D----444444444-666666666-1111111111-----------------
***Figure out the strumming pattern on your own***
[ Tab from: http://www.guitartabs.cc/tabs/f/finch/waiting_tab.html ]
Chorus (Guitar 2)
E---------------------------------------------------
B---------------------------------------------------
G------------------------888888888-666666666--------
D----444444444-666666666-888888888-666666666--------
A----444444444-666666666-666666666-444444444--------
D----444444444-666666666----------------------------

Verse
E---------------------------------------------------
B---------------------------------------------------
G--7-7-7-7-6----------------------------------------
D------------44444444444444444444444444444444444----
A------------44444444444444444444444444444444444----
D------------44444444444444444444444444444444444----
   PALM MUTE |---------------------------------|

Bridge (i think, its a quick little thing they threw in)
E---------------------------------------------------
B---------------------------------------------------
G---10---8------------------------------------------
D---8----6------------------------------------------
A---8----6------------------------------------------
D---8----6------------------------------------------

Breakdown (kill all distortion but maybe an OD pedal)
E---------------------------------------------------
B---------------------------------------------------
G---------------------------------------------------
D--444-666-111--------------------------------------
A--444-666-111--4-Times-----------------------------
D--444-666-111--------------------------------------

"AND I WILL NEVER....." (both guitars)
E---------------------------------------------------
B---------------------------------------------------
G--66666666-888888888-33333333----------------------
D--44444444-666666666-11111111----------------------
A--44444444-666666666-11111111----------------------
D--44444444-666666666-11111111----------------------
Comments