Finch - Three Simple Words Chords & Tabs

 

Three Simple Words Chords & Tabs

Finch Chords & Tabs

Version: 1 Type: Tab 0 ratings
1 star 2 stars 3 stars 4 stars 5 stars
comments

Three Simple Words Tab

Artist - Finch
Song - Three Simple Words
Album - What it is to Burn
Tabber - Millenium3snw, Brent
Tune - Drop D (DADGBe)

Note: This is my first tab ever but I love finch so I hope you guys enjoy. It's an easy
song and I think it sounds just like it but give me your opinion. Questions or comments:
Millenium3snw@hotmail.com -Thanks

h = hammer on
x = mute
~ = let ring

*Intro - (2x) - Destoration
e ----------------------------------------------------------------------------
B ----------------------------------------------------------------------------
G ----------------------------------------------------------------------------
D --5-xxxxxxxxxxxxxx-3-xxxxxxxxxxxxxx-----------------------------------------
A --3-xxxxxxxxxxxxxx-1-xxxxxxxxxxxxxx-3-xxxxxxxxxxxxxx-1-xxxxxxxxxxxxxx-------
D ------------------------------------3-xxxxxxxxxxxxxx-1-xxxxxxxxxxxxxx-------
    Second time thru end with..
D -------------------
A --11111111111111---
D --11111111111111---

*Post Intro - (1x) - Destoration
e ---------------------------------------------------------
B ---------------------------------------------------------
G ---------------------------------------------------------
D --555555555555-333333333333------------------------------
A --333333333333-111111111111-333333333333-111111xx1xx1----
D ----------------------------333333333333-111111xx1xx1----

*Verse - (2x) - Destoration
GUITAR 1:
e ---------------------------------------------------------------------------
B ---------------------------------------------------------------------------
G ---------------------------------------------------------------------------
D --5-xxxxxxxxxxxxxx-3-xxxxxxxxxxxxxx----------------------------------------
A --3-xxxxxxxxxxxxxx-1-xxxxxxxxxxxxxx-3-xxxxxxxxxxxxxx-11111111--------------
D ------------------------------------3-xxxxxxxxxxxxxx-11111111--------------
GUITAR 2:
e ---------------------------------------------------------------------------
B ---------------------------------------------------------------------------
G ---------------------------------------------------------------------------
D ---------------------------------------------------------------------------
A --3---3h5---3h5----1---1h3---1h3---------------------11111111--------------
D ------------------------------------3---3h5---3h5----11111111--------------

*Chorus - (2x) - Destoration
e ---------------------------------------------------------
B ---------------------------------------------------------
G ---------------------------------------------------------
D ---------------555555555555------------------------------
A --666666666666-333333333333-111111111111-333333333333----
D --666666666666--------------111111111111-333333333333----

*Repeat Verse

*Repeat Chorus (4x this time)
[ Tab from: http://www.guitartabs.cc/tabs/f/finch/three_simple_words_tab.html ]
*Bridge: Part 1 - Destoration
[NOTE:] I don't know this part of the song. Sorry, but I've picked up a little if you
want to work with it.

Guitar 1 - (1x)
e ------------------------------?------------?------------?------------?------------
B ------------------------------?------------?------------?------------?------------
G ------------------------------?------------?------------?------------?------------
D --55----55----55----55----55--?--55-55-55--?--55-55-55--?--55-55-55--?--55-55-55--
A --33----33----33----33----33--?--33-33-33--?--33-33-33--?--33-33-33--?--33-33-33--
D ------------------------------?------------?------------?------------?------------
Mute      ..    ..    ..

GUITAR 2 - (All I know is..)
e ------------------------
B ------------------------
G --12-12-12-12-8-8-8-8---
D ------------------------
A ------------------------
D ------------------------


*Bridge: Part 2 - Destoration - (4x) - "WHO WILL STOP ME NOW (WHO WILL STOP ME NOW)"
e -----------------------------------------------
B -----------------------------------------------
G -----------------------------------------------
D --5-5-5-5-5------------------------------------
A --3-3-3-3-3--1-1-1-1-1--6-6-6-6-6--1-1-1-1-1---
D -------------1-1-1-1-1--6-6-6-6-6--1-1-1-1-1---

*Repeat Chorus (4x this time)

*End With  (1x)
D -------
A --6~---
D --6~---



LYRICS:
Open up my eyes
Flooded with daylight
Another sleepless night turns color black and white
With all the things I've said
There is just regret
Repeating in my head

Hands into a fist
Static in my head
Now I'm sitting face to face with loneliness
What did I expect?
Did I see forever
In you?

I never... want it to hurt
More than it should
I hope you're... satisfied
I never could

Time to close my eyes
Forget about this mess
And try to fix this tragic loss of innocence
But how can I forget
The things I have inside
When everything is dead?

I never... want it to hurt
More than it should
I hope you're... satisfied
I never could
Can't you SEE
You left ME
Here on my own
Give me ONE 
Good reaSON
Why I should let go

With my hands around your neck
Who will stop me now?
With my hands around your neck
Who will stop me now?

With my hands around your neck
Who will stop me now?
With my hands around your neck
WHO WILL STOP ME NOW? (WHO WILL STOP ME NOW?)

WHO WILL STOP ME NOW? (WHO WILL STOP ME NOW?)
WHO WILL STOP ME NOW? (WHO WILL STOP ME NOW?)
WHO WILL STOP ME NOW? (WHO WILL STOP ME NOW?)
WHO WILL STOP ME NOW? (WHO WILL STOP ME NOW?)
WHO WILL STOP ME NOW? (WHO WILL STOP ME NOW?)
WHO WILL STOP ME NOW? (WHO WILL STOP ME NOW?)
WHO WILL STOP ME NOW? (WHO WILL STOP ME NOW?)


I never... want it to hurt
More than it should
I hope you're... satisfied
I never could
Can't you SEE
You left ME
Here on my own
Give me ONE 
Good reaSON
Why i should let go now
Comments