Finch - Stay With Me Chords & Tabs

 

Stay With Me Chords & Tabs

Finch Chords & Tabs

Version: 2 Type: Bass Tab 0 ratings
1 star 2 stars 3 stars 4 stars 5 stars
comments

Stay With Me Bass Tab

   
-------------------------------------------------------------------------------
                           Stay With Me - Finch  
-------------------------------------------------------------------------------
Tune down half a step to Eb-Ab-Db-Gb

Intro A
G|----------------|----------------|----------------|----------------|
D|----------------|----------------|----------------|----------------|
A|----------------|----------------|----------------|----------------|x2
E|77-77-----------|77-77-----------|44-44-----------|44-44-----------|

Intro B
G|----------------|
D|----------------|
A|----------------|
E|0---------------|

Verse
G|----------------|----------------|----------------|----------------|
D|----------------|----------------|----------------|----------------|
A|----------------|----------------|----------------|----------------|x2
E|7777777777777777|0000000000000000|7777777777777777|4444444422222222|

G|----------------|----------------|----------------|----------------|
D|----------------|----------------|----------------|----------------|
A|----------------|----------------|----------------|----------------|
E|0--00-hold------|0--00-hold------|0--00-hold------|0--00-hold------|

Chorus 1
G|----------------|----------------|----------------|----------------|
D|----------------|----------------|----------------|----------------|
A|----------------|----------------|----------------|----------------|
E|77-77-----------|77-77-----------|44-44-----------|44-44-----------|
[ Tab from: http://www.guitartabs.cc/tabs/f/finch/stay_with_me_btab_ver_2.html ]
G|----------------|----------------|----------------|----------------|
D|----------------|----------------|----------------|----------------|
A|------12-hold---|----------------|----------------|----------------|
E|77-77-----------|77-77-----------|44-44-----------|44-44-----------|

Play Intro B
Play Verse
Play Chorus

Bridge
G|----------------|----------------|----------------|----------------|
D|----------------|----------------|----------------|----------------|
A|----------------|----------------|----------------|----------------|x2
E|7777777777777777|7777777777777777|4444444444444444|4444444444444444|

(this part hold throughout)
G|----------------|----------------|----------------|----------------|
D|----------------|----------------|----------------|----------------|
A|----------------|----------------|----------------|----------------|
E|0---------------|----------------|0---------------|----------------|

(this part hold throughout)
G|----------------|----------------|----------------|----------------|
D|----------------|2---------------|----------------|----------------|
A|2-------4-------|----------------|----------------|----------------|
E|----------------|----------------|4-------2-------|0---------------|

Bridge B
G|----------------|----------------|----------------|----------------|
D|----------------|2222222222222222|----------------|----------------|
A|2222222244444444|----------------|----------------|----------------|x2
E|----------------|----------------|4444444422222222|0000000000000000|

Play Intro A
Play Bridge B

Outro
G|----------------|----------------|
D|----------------|----------------|
A|2-hold--4-hold--|----------------|
E|----------------|0-hold----------|

-------------------------------------------------------------------------------
Comments