Finch - Post Script Chords & Tabs

 

Post Script Chords & Tabs

Finch Chords & Tabs

Version: 5 Type: Tab

Post Script Tab

   
Tabber:Kilian McMahon 
e-mail:kilianis@hotmail.com



Tuning: Db Ab Db Gb Bb eb




-------------
 3.Post Script
 -------------






  Intro (harmonics)
|-----------------------------|
|-----------------------------|
|-----------------------------|
|-----------------------------|
|------99-55----99-55----99---|
|---55-------55-------55------|


   Pre Verse
|-----------------------------------------------------------------------------------------------------------|
|-----------------------------------------------------------------------------------------------------------|
|---7-7-7777-7-7-7777-14-14-14141414-14-14-14141414-14-14-14141414-14-14-14141414-14-14-14141414-9-9-9999---|
|---x-x-xxxx-x-x-xxxx-x--x--x-x-x-x--x--x--x-x-x-x--x--x--x-x-x-x--x--x--x-x-x-x--x--x--x-x-x-x--x-x-xxxx---|
|---5-5-5555-5-5-5555-12-12-12121212-12-12-12121212-12-12-12121212-12-12-12121212-12-12-12121212-7-7-7777---|
|-----------------------------------------------------------------------------------------------------------|

   Verse
|-----------------------------------|
|-----------------------------------|
|-------------------44444-----------|
|---55555---00000---44444---77777---|
|---55555---00000---22222---77777---|
|---55555---00000-----------77777---|

[ Tab from: http://www.guitartabs.cc/tabs/f/finch/post_script_tab_ver_5.html ]
   Chorus
|-----------------------------------------------------------------------------------|
|-----------------------------------------------------------------------------------|
|-----------------------------------------------------------------------------------|
|--------12-------12-------12-------12--------12-------12--00-44-55-00-44-55-4444---|
|---9-10-----9-10-----9-10-----9-10-----9-10------9-10-----00-44-55-00-44-55-4444---|
|----------------------------------------------------------00-44-55-00-44-55-4444---|


   Chorus End
|-------------------------|
|-------------------------|
|-------------------------|
|---00-44-55-00-44-55-0---|
|---00-44-55-00-44-55-0---|
|---00-44-55-00-44-55-0---|


   Bridge Clean Lead
|-----------------------------------------------------|
|-----------------------------------------------------|
|----7--7--7--0--0--0---7--7--7------7---------7------|
|-----7--7-----4--4------7--7-----4---4-4---5---5-5---|
|---5--5--5-----5--5---5--5--5-----4---------5--------|
|--------------------------------4--4--4---5--5--5----|


   Bridge Clean Rhythm
|-----------------------|
|---77777777-55555555---|
|---77777777-66666666---|
|---xxxxxxxx-xxxxxxxx---|
|---55555555-44444444---|
|-----------------------|



   Bridge End
|-------------------------------------------|
|-------------------------------------------|
|-------------------------------------------|
|---0-00-00-00-00-00-00-00--444-4--555-4----|
|---0-00-00-00-00-00-00-00--444--5-555--5---|
|---0-00-00-00-00-00-00-00--444----555------|


   Ending
|-----------------------------------|
|-----------------------------------|
|-----------------------------------|
|---444-4--555-4--444-4--555-4--0---|
|---444--5-555--5-444--5-555--5-0---|
|---444----555----444----555----0---|





Playing Order:


Intro   X2
Pre Verse   X2
Intro   X1
Verse   X2
Chorus   X2
Pre Verse   X1
Verse   X2
Chorus + Chorus End  X1 
Bridge Clean Lead   X1
Bridge Clean Lead + Bridge Clean Rhythm   X1
Bridge End   X3
Ending   X1