Finch - Post Script Chords & Tabs

 

Post Script Chords & Tabs

Finch Chords & Tabs

Version: 1 Type: Tab 0 ratings
1 star 2 stars 3 stars 4 stars 5 stars
comments

Post Script Tab

Song:Post Script
Album:What It Is To Burn
Artist:Finch
Tabber:Eric Styrmoe
Email dabomb172@hotmail.com

Drop C# Tuning

* - harmonic
~ - let ring

Guitar 1

Intro (11x)
d#|---------------------------------------------------------------------------|
A#|---------------------------------------------------------------------------|
F#|---------------------------------------------------------------------------|
C#|---------------------------------------------------------------------------|
G#|----4*4*5*5*----4*4*5*5*----4*4*-------------------------------------------|
C#|5*5*--------5*5*--------5*5*-----------------------------------------------|

Verse
d#|---------------------------------------------------------------------------|
A#|---------------------------------------------------------------------------|
F#|--------------------------4-4-4-4-4---2~-----------------------------------|
C#|5-5-5-5-5----0-0-0-0-0----4-4-4-4-4---2~-----------------------------------|
G#|5-5-5-5-5----0-0-0-0-0----2-2-2-2-2---0~-----------------------------------|
C#|5-5-5-5-5----0-0-0-0-0-----------------------------------------------------|

d#|---------------------------------------------------------------------------|
A#|------------------------------------3---3----------------------------------|
F#|----------7------------7--4-4-4-4-4---2------------------------------------|
C#|5-5-5-5-5----0-0-0-0-0----4-4-4-4-4---2------------------------------------|
G#|5-5-5-5-5----0-0-0-0-0----2-2-2-2-2---0------------------------------------|
C#|5-5-5-5-5----0-0-0-0-0-----------------------------------------------------|

The C# note is played 8 times, fast

Chorus (2x)
d#|---------------------------------------------------------------------------|
A#|---------------------------------------------------------------------------|
F#|----7-------7-------7-------7-------7-------7------------------------------|
C#|4-5---5-4-5---5-4-5---5-4-5---5-4-5---5-4-5---0-4-5-0-4-5-0-4-0~-----------|
G#|----------------------------------------------0-4-5-0-4-5-0-4-0~-----------|
C#|----------------------------------------------0-4-5-0-4-5-0-4-0~-----------|

Intro

Verse

Chorus

Interlude (2x)
d#|------------------------------------------------------------------|
A#|------------------------------------------------------------------|
F#|---7-----7-----7---0-----0-----0---7-----7-----7---0-----0-----0--|
C#|-----5-----5---------4-----4---------5-----5---------4-----4------|
G#|-5-----5-----5---5-----5-----5---5-----5-----5---5-----5-----5----|
C#|------------------------------------------------------------------|
[ Tab from: http://www.guitartabs.cc/tabs/f/finch/post_script_tab.html ]
d#|------------------------------------------|
A#|------------------------------------------|
F#|--------7---------------7-----------------|
C#|--4-------4---4---5-------5---5-----------|
G#|----4-------4-------5-------5-------------|
C#|4-----4---------5-----5-------------------|

Interlude (Second Part) / Ending
e|---------------------------------------------------------------------------|
B|---------------------------------------------------------------------------|
G|---------------------------------------------------------------------------|
D|0-0-0-0-0-0-0-0-0-0-0-0-0-0-0-0---4-4-4-4---5-5-5-4------------------------|
A|0-0-0-0-0-0-0-0-0-0-0-0-0-0-0-0---4-4-4---5-5-5-5---5----------------------|
E|0-0-0-0-0-0-0-0-0-0-0-0-0-0-0-0---4-4-4-----5-5-5--------------------------|

Guitar 2
-----------------
Intro (after the first guitar does 2 circles of harmonics) (lots of times)
e|---------------------------------------------------------------------------|
B|---------------------------------------------------------------------------|
G|14------9------------------------------------------------------------------|
D|-x------x------------------------------------------------------------------|
A|12------7------------------------------------------------------------------|
E|---------------------------------------------------------------------------|

Verse:  (Play this if the guitar 1 can't play the C# notes... or to give a bigger sound to the verses...)
e|---------------------------------------------------------------------------|
B|---------------------------------------------------------------------------|
G|--7------------------------------------------------------------------------|
D|--x------------------------------------------------------------------------|
A|--5------------------------------------------------------------------------|
E|---------------------------------------------------------------------------|

Chorus (Same as guitar 1)

Verse

Chorus

Interlude:  (play this in the 2nd circle)
e|---------------------------------------------------------------------------|
B|---------------------------------------------------------------------------|
G|---------------------------------------------------------------------------|
D|4-4-4-4-4-4-4-4-2-2-2-2-2-2-2-2-4-4-4-4-4-4-4-4-2-2-2-2-2-2-2-2------------|
A|5-5-5-5-5-5-5-5-5-5-5-5-5-5-5-5-5-5-5-5-5-5-5-5-5-5-5-5-5-5-5-5------------|
E|---------------------------------------------------------------------------|

e|---------------------------------------------------------------------------|
B|---------------------------------------------------------------------------|
G|---------------------------------------------------------------------------|
D|---------------------------------------------------------------------------|
A|4-4-4-4-4-4-4-4-5-5-5-5-5-5-5-5--------------------------------------------|
E|4-4-4-4-4-4-4-4-5-5-5-5-5-5-5-5--------------------------------------------|

Ending (Same as guitar 1)

Comments