Finch - Post Script Chords & Tabs

 

Post Script Chords & Tabs

Finch Chords & Tabs

Version: 1 Type: Bass Tab

Post Script Bass Tab

This song is so sick, and so fun to play. Enjoy !

Intro
G|-----------------------------------------------------------------|
D|-----------------------------------------------------------------|
A|-------------------------------22-2-222-2-222-2-22-2-222-2-000-0-|
D|-55-5555-5555-5-00-0000-0000-0-----------------------------------|

Verse
G|------------------------------------------------------------|
D|------------------------------------------------------------|
A|-------------22222-0000/1212121212-------------2222-0000-0~-|
D|-55555-00000-----------------------55555-00000--------------|
[ Tab from: http://www.guitartabs.cc/tabs/f/finch/post_script_btab.html ]
Chorus x2
G|---------------------------------------------------------|
D|---------------------------------------------------------|
A|--2222-2222-----------2222-2222--------------------------|
D|------------0000-0000-----------00-44-55-00-44-55-00-44--|

Verse
G|------------------------------------------------------------|
D|------------------------------------------------------------|
A|-------------22222-0000/1212121212-------------2222-0000-0~-|
D|-55555-00000-----------------------55555-00000--------------|

Chorus x2
G|---------------------------------------------------------|
D|---------------------------------------------------------|
A|--2222-2222-----------2222-2222--------------------------|
D|------------0000-0000-----------00-44-55-00-44-55-00-44--|

Ending x2
G|------------------------------|--------------------------------|
D|------------------------------|--------------------------------|
A|------------------------------|-------2/555------2/555---------|
D|--0000-0000-0000-0000-444-555-|--0000-------0000-------444-555-|