Finch - Perfection Through Silence Chords & Tabs

 

Perfection Through Silence Chords & Tabs

Finch Chords & Tabs

Version: 2 Type: Tab 0 ratings
1 star 2 stars 3 stars 4 stars 5 stars
comments

Perfection Through Silence Tab

Finch
Perfection Through Silence                            


Guitar 1
                                                               
D#||------------|----------------------|----------------------|
A#||------------|----------------------|----------------------|
F#||------------|--9----8---------9----|--8---------9----8----|
C#||--x--5------|------------9---------|-------9--------------|
G#||--x--5------|----------------------|----------------------|
C#||--x--5------|----------------------|----------------------|


                                                                     
----------------------|----------------------|----------------------|
----------------------|----------------------|----------------------|
--9----8---------9----|--8---------9----8----|--9----8---------9----|
------------9---------|-------9--------------|------------9---------|
----------------------|----------------------|----------------------|
----------------------|----------------------|----------------------|


                                                                     
----------------------|----------------------|----------------------|
----------------------|----------------------|----------------------|
--8---------9----8----|--9----8---------9----|--8---------9----8----|
-------9--------------|------------9---------|-------9--------------|
----------------------|----------------------|----------------------|
----------------------|----------------------|----------------------|


                                                                     
----------------------|----------------------|----------------------|
----------------------|----------------------|----------------------|
--9----8---------9----|--8---------9----8----|--9----8---------9----|
------------9---------|-------9--------------|------------9---------|
----------------------|----------------------|----------------------|
----------------------|----------------------|----------------------|


                                                                     
----------------------|----------------------|----------------------|
----------------------|----------------------|----------------------|
--8---------9----8----|--9----8---------9----|--8---------9----8----|
-------9--------------|------------9---------|-------9--------------|
----------------------|----------------------|----------------------|
----------------------|----------------------|----------------------|


                                                                     
----------------------|----------------------|----------------------|
----------------------|------------9----7----|----------------------|
--9----8---------9----|--8-------------------|--9----8---------9----|
------------9---------|-------9--------------|------------9---------|
----------------------|----------------------|----------------------|
----------------------|----------------------|----------------------|


                                                                     
----------------------|----------------------|----------------------|
------------9----7----|----------------------|------------9----7----|
--8-------------------|--9----8---------9----|--8-------------------|
-------9--------------|------------9---------|-------9--------------|
----------------------|----------------------|----------------------|
----------------------|----------------------|----------------------|


                                                                     
----------------------|----------------------|----------------------|
----------------------|------------9----7----|----------------------|
--9----8---------9----|--8-------------------|--9----8---------9----|
------------9---------|-------9--------------|------------9---------|
----------------------|----------------------|----------------------|
----------------------|----------------------|----------------------|


                                                                     
----------------------|----------------------|----------------------|
------------9----7----|----------------------|------------9----7----|
--8-------------------|--9----8---------9----|--8-------------------|
-------9--------------|------------9---------|-------9--------------|
----------------------|----------------------|----------------------|
----------------------|----------------------|----------------------|


                                                                     
----------------------|----------------------|----------------------|
----------------------|------------9----7----|----------------------|
--9----8---------9----|--8-------------------|--9----8---------9----|
------------9---------|-------9--------------|------------9---------|
----------------------|----------------------|----------------------|
----------------------|----------------------|----------------------|


                                                                     
----------------------|----------------------|----------------------|
------------9----7----|----------------------|------------9----7----|
--8-------------------|--9----8---------9----|--8-------------------|
-------9--------------|------------9---------|-------9--------------|
----------------------|----------------------|----------------------|
----------------------|----------------------|----------------------|


                                       
-------------------|------------------|
-------------------|------------------|
--9----------------|------------------|
-------------------|------------------|
-------------------|------------------|
-------------------|------------------|


                                           
------------------------------------------|
------------------------------------------|
------------------------------------------|
--11------------11------------11----11----|
--11------------11------------11----11----|
--11------------11------------11----11----|


                                         
----------------------------------------|
----------------------------------------|
----------------------------------------|
--11------------11------------9----9----|
--7-------------7-------------7----7----|
----------------------------------------|


                                        
---------------------------------------|
---------------------------------------|
---------------------------------------|
--7------------7------7------7----7----|
--7------------7------7------7----7----|
--7------------7------7------7----7----|


                                           
------------------------------------------|
------------------------------------------|
------------------------------------------|
--9----9----9----9----9----9----9----9----|
--7----7----7----7----6----6----6----6----|
------------------------------------------|


                                                                   
------------------------------------------------------------------|
------------------------------------------------------------------|
------------------------------------------------------------------|
--11--11--11--11--11--11--11--11--11--11--11--11--11--11--11--11--|
--11--11--11--11--11--11--11--11--11--11--11--11--11--11--11--11--|
--11--11--11--11--11--11--11--11--11--11--11--11--11--11--11--11--|


                                                   
--------------------------------------------------|
--------------------------------------------------|
--------------------------------------------------|
--2--2--2--2--2--2--2--2--2--2--2--2--2--2--2--2--|
--2--2--2--2--2--2--2--2--2--2--2--2--2--2--2--2--|
--2--2--2--2--2--2--2--2--2--2--2--2--2--2--2--2--|


                                                   
--------------------------------------------------|
--------------------------------------------------|
--------------------------------------------------|
--7--7--7--7--7--7--7--7--7--7--7--7--7--7--7--7--|
--7--7--7--7--7--7--7--7--7--7--7--7--7--7--7--7--|
--7--7--7--7--7--7--7--7--7--7--7--7--7--7--7--7--|


                                                   
--------------------------------------------------|
--------------------------------------------------|
--------------------------------------------------|
--7--7--7--7--7--7--7--7--7--7--7--7--7--7--7--7--|
--7--7--7--7--7--7--7--7--7--7--7--7--7--7--7--7--|
--7--7--7--7--7--7--7--7--7--7--7--7--7--7--7--7--|


                                                                                
----------------------------------|----|----|----|----|----|----|----|----|----|
----------------------------------|----|----|----|----|----|----|----|----|----|
----------------------------------|----|----|----|----|----|----|----|----|----|
----------------------------------|----|----|----|----|----|----|----|----|----|
----------------------------------|----|----|----|----|----|----|----|----|----|
----------------------------------|----|----|----|----|----|----|----|----|----|


                                                                              
----|----|----|----|----|----|----|------------------------------------------|
----|----|----|----|----|----|----|------------------------------------------|
----|----|----|----|----|----|----|------------------------------------------|
----|----|----|----|----|----|----|--11------------11------------11----11----|
----|----|----|----|----|----|----|--11------------11------------11----11----|
----|----|----|----|----|----|----|--11------------11------------11----11----|


                                         
----------------------------------------|
----------------------------------------|
----------------------------------------|
--11------------11------------9----9----|
--7-------------7-------------7----7----|
----------------------------------------|


                                        
---------------------------------------|
---------------------------------------|
---------------------------------------|
--7------------7------7------7----7----|
--7------------7------7------7----7----|
--7------------7------7------7----7----|


                                           
------------------------------------------|
------------------------------------------|
------------------------------------------|
--9----9----9----9----9----9----9----9----|
--7----7----7----7----6----6----6----6----|
------------------------------------------|


                                                                   
------------------------------------------------------------------|
------------------------------------------------------------------|
------------------------------------------------------------------|
--11--11--11--11--11--11--11--11--11--11--11--11--11--11--11--11--|
--11--11--11--11--11--11--11--11--11--11--11--11--11--11--11--11--|
--11--11--11--11--11--11--11--11--11--11--11--11--11--11--11--11--|


                                                   
--------------------------------------------------|
--------------------------------------------------|
--------------------------------------------------|
--2--2--2--2--2--2--2--2--2--2--2--2--2--2--2--2--|
--2--2--2--2--2--2--2--2--2--2--2--2--2--2--2--2--|
--2--2--2--2--2--2--2--2--2--2--2--2--2--2--2--2--|


                                                   
--------------------------------------------------|
--------------------------------------------------|
--------------------------------------------------|
--7--7--7--7--7--7--7--7--7--7--7--7--7--7--7--7--|
--7--7--7--7--7--7--7--7--7--7--7--7--7--7--7--7--|
--7--7--7--7--7--7--7--7--7--7--7--7--7--7--7--7--|


                                                   
--------------------------------------------------|
--------------------------------------------------|
--------------------------------------------------|
--7--7--7--7--7--7--7--7--7--7--7--7--7--7--7--7--|
--7--7--7--7--7--7--7--7--7--7--7--7--7--7--7--7--|
--7--7--7--7--7--7--7--7--7--7--7--7--7--7--7--7--|


                                                                                
----------------------------------|----|----|----|----|----|----|----|----|----|
----------------------------------|----|----|----|----|----|----|----|----|----|
----------------------------------|----|----|----|----|----|----|----|----|----|
----------------------------------|----|----|----|----|----|----|----|----|----|
----------------------------------|----|----|----|----|----|----|----|----|----|
----------------------------------|----|----|----|----|----|----|----|----|----|


                                                          
----|----|----|----|----|----|----|----------------------|
----|----|----|----|----|----|----|----------------------|
----|----|----|----|----|----|----|--9----8---------9----|
----|----|----|----|----|----|----|------------9---------|
----|----|----|----|----|----|----|----------------------|
----|----|----|----|----|----|----|----------------------|


                                                                     
----------------------|----------------------|----------------------|
----------------------|----------------------|----------------------|
--8---------9----8----|--9----8---------9----|--8---------9----8----|
-------9--------------|------------9---------|-------9--------------|
----------------------|----------------------|----------------------|
----------------------|----------------------|----------------------|


                                                                     
----------------------|----------------------|----------------------|
----------------------|----------------------|----------------------|
--9----8---------9----|--8---------9----8----|--9----8---------9----|
------------9---------|-------9--------------|------------9---------|
----------------------|----------------------|----------------------|
----------------------|----------------------|----------------------|


                                                                     
----------------------|----------------------|----------------------|
----------------------|----------------------|----------------------|
--8---------9----8----|--9----8---------9----|--8---------9----8----|
-------9--------------|------------9---------|-------9--------------|
----------------------|----------------------|----------------------|
----------------------|----------------------|----------------------|


                                                                     
----------------------|----------------------|----------------------|
----------------------|----------------------|----------------------|
--9----8---------9----|--8---------9----8----|--9----8---------9----|
------------9---------|-------9--------------|------------9---------|
----------------------|----------------------|----------------------|
----------------------|----------------------|----------------------|


                                                                     
----------------------|----------------------|----------------------|
----------------------|----------------------|------------9----7----|
--8---------9----8----|--9----8---------9----|--8-------------------|
-------9--------------|------------9---------|-------9--------------|
----------------------|----------------------|----------------------|
----------------------|----------------------|----------------------|


                                                                             
-------------------|------------------|------------------|------------------|
--5----------------|------------------|------------------|------------------|
-------------------|------------------|------------------|------------------|
-------------------|------------------|------------------|------------------|
-------------------|------------------|------------------|------------------|
-------------------|------------------|------------------|------------------|


                                                                            
------------------|------------------|------------------|------------------|
------------------|------------------|------------------|------------------|
------------------|------------------|------------------|------------------|
------------------|------------------|------------------|------------------|
------------------|------------------|------------------|------------------|
------------------|------------------|------------------|------------------|


                                                                      
----------------------------------|----------------------------------|
--9---9---9---9---9---9---9---9---|--9---9---9---9---9---9---9---9---|
--11--11--11--11--11--11--11--11--|--11--11--11--11--11--11--11--11--|
----------------------------------|----------------------------------|
----------------------------------|----------------------------------|
----------------------------------|----------------------------------|


                                                                             
----------------------------------|----------------------------------||-----|
--9---9---9---9---9---9---9---9---|--9---9---9---9---9---9---9---9---||-----|
--11--11--11--11--11--11--11--11--|--11--11--11--11--11--11--11--11--||*----|
----------------------------------|----------------------------------||*----|
----------------------------------|----------------------------------||-----|
----------------------------------|----------------------------------||-----|


                                                                             
----|----|----|----|----|----|-----||----|----|----|----|----|----|----|----|
----|----|----|----|----|----|-----||----|----|----|----|----|----|----|----|
----|----|----|----|----|----|----*||----|----|----|----|----|----|----|----|
----|----|----|----|----|----|----*||----|----|----|----|----|----|----|----|
----|----|----|----|----|----|-----||----|----|----|----|----|----|----|----|
----|----|----|----|----|----|-----||----|----|----|----|----|----|----|----|


                                                               
----|----|----|----|----|----|----|----|----------------------|
----|----|----|----|----|----|----|----|----------------------|
----|----|----|----|----|----|----|----|--9----8---------9----|
----|----|----|----|----|----|----|----|------------9---------|
----|----|----|----|----|----|----|----|----------------------|
----|----|----|----|----|----|----|----|----------------------|


                                                                     
----------------------|----------------------|----------------------|
----------------------|----------------------|----------------------|
--8---------9----8----|--9----8---------9----|--8---------9----8----|
-------9--------------|------------9---------|-------9--------------|
----------------------|----------------------|----------------------|
----------------------|----------------------|----------------------|


                                                                     
----------------------|----------------------|----------------------|
----------------------|----------------------|----------------------|
--9----8---------9----|--8---------9----8----|--9----8---------9----|
------------9---------|-------9--------------|------------9---------|
----------------------|----------------------|----------------------|
----------------------|----------------------|----------------------|


                                                                     
----------------------|----------------------|----------------------|
----------------------|----------------------|----------------------|
--8---------9----8----|--9----8---------9----|--8---------9----8----|
-------9--------------|------------9---------|-------9--------------|
----------------------|----------------------|----------------------|
----------------------|----------------------|----------------------|


                                                                     
----------------------|----------------------|----------------------|
----------------------|----------------------|----------------------|
--9----8---------9----|--8---------9----8----|--9----8---------9----|
------------9---------|-------9--------------|------------9---------|
----------------------|----------------------|----------------------|
----------------------|----------------------|----------------------|


                                                                               
----------------------|----------------------|----------------------|--------||
----------------------|----------------------|------------9----7----|--------||
--8---------9----8----|--9----8---------9----|--8-------------------|--9--9--||
-------9--------------|------------9---------|-------9--------------|--------||
----------------------|----------------------|----------------------|--------||
----------------------|----------------------|----------------------|--------||





Guitar 2
                                                         
D#||------|--------------------------|--------------------------|
A#||------|--------------------------|--------------------------|
F#||------|--------------------------|--------------------------|
C#||------|--2--2--2--2--2--2--2--2--|--2--2--2--2--2--2--2--2--|
G#||------|--2--2--2--2--2--2--2--2--|--2--2--2--2--2--2--2--2--|
C#||------|--2--2--2--2--2--2--2--2--|--2--2--2--2--2--2--2--2--|


                                                      
--------------------------|--------------------------|
--------------------------|--------------------------|
--------------------------|--------------------------|
--2--2--2--2--2--2--2--2--|--2--2--2--2--2--2--2--2--|
--2--2--2--2--2--2--2--2--|--2--2--2--2--2--2--2--2--|
--2--2--2--2--2--2--2--2--|--2--2--2--2--2--2--2--2--|


                                                                      
----------------------------------|----------------------------------|
----------------------------------|----------------------------------|
----------------------------------|----------------------------------|
--11--11--11--11--11--11--11--11--|--11--11--11--11--11--11--11--11--|
--11--11--11--11--11--11--11--11--|--11--11--11--11--11--11--11--11--|
--11--11--11--11--11--11--11--11--|--11--11--11--11--11--11--11--11--|


                                                                      
----------------------------------|----------------------------------|
----------------------------------|----------------------------------|
----------------------------------|----------------------------------|
--11--11--11--11--11--11--11--11--|--11--11--11--11--11--11--11--11--|
--11--11--11--11--11--11--11--11--|--11--11--11--11--11--11--11--11--|
--11--11--11--11--11--11--11--11--|--11--11--11--11--11--11--11--11--|


                                                      
--------------------------|--------------------------|
--------------------------|--------------------------|
--------------------------|--------------------------|
--6--6--6--6--6--6--6--6--|--6--6--6--6--6--6--6--6--|
--6--6--6--6--6--6--6--6--|--6--6--6--6--6--6--6--6--|
--6--6--6--6--6--6--6--6--|--6--6--6--6--6--6--6--6--|


                                                      
--------------------------|--------------------------|
--------------------------|--------------------------|
--------------------------|--------------------------|
--6--6--6--6--6--6--6--6--|--6--6--6--6--6--6--6--6--|
--6--6--6--6--6--6--6--6--|--6--6--6--6--6--6--6--6--|
--6--6--6--6--6--6--6--6--|--6--6--6--6--6--6--6--6--|


                                                      
--------------------------|--------------------------|
--------------------------|--------------------------|
--------------------------|--------------------------|
--7--7--7--7--7--7--7--7--|--7--7--7--7--7--7--7--7--|
--7--7--7--7--7--7--7--7--|--7--7--7--7--7--7--7--7--|
--7--7--7--7--7--7--7--7--|--7--7--7--7--7--7--7--7--|


                                                      
--------------------------|--------------------------|
--------------------------|--------------------------|
--------------------------|--------------------------|
--7--7--7--7--7--7--7--7--|--7--7--7--7--7--7--7--7--|
--7--7--7--7--7--7--7--7--|--7--7--7--7--7--7--7--7--|
--7--7--7--7--7--7--7--7--|--7--7--7--7--7--7--7--7--|

[ Tab from: http://www.guitartabs.cc/tabs/f/finch/perfection_through_silence_tab_ver_2.html ]
                                                      
--------------------------|--------------------------|
--------------------------|--------------------------|
--------------------------|--------------------------|
--2--2--2--2--2--2--2--2--|--2--2--2--2--2--2--2--2--|
--2--2--2--2--2--2--2--2--|--2--2--2--2--2--2--2--2--|
--2--2--2--2--2--2--2--2--|--2--2--2--2--2--2--2--2--|


                                                      
--------------------------|--------------------------|
--------------------------|--------------------------|
--------------------------|--------------------------|
--2--2--2--2--2--2--2--2--|--2--2--2--2--2--2--2--2--|
--2--2--2--2--2--2--2--2--|--2--2--2--2--2--2--2--2--|
--2--2--2--2--2--2--2--2--|--2--2--2--2--2--2--2--2--|


                                                                      
----------------------------------|----------------------------------|
----------------------------------|----------------------------------|
----------------------------------|----------------------------------|
--11--11--11--11--11--11--11--11--|--11--11--11--11--11--11--11--11--|
--11--11--11--11--11--11--11--11--|--11--11--11--11--11--11--11--11--|
--11--11--11--11--11--11--11--11--|--11--11--11--11--11--11--11--11--|


                                                                      
----------------------------------|----------------------------------|
----------------------------------|----------------------------------|
----------------------------------|----------------------------------|
--11--11--11--11--11--11--11--11--|--11--11--11--11--11--11--11--11--|
--11--11--11--11--11--11--11--11--|--11--11--11--11--11--11--11--11--|
--11--11--11--11--11--11--11--11--|--11--11--11--11--11--11--11--11--|


                                                      
--------------------------|--------------------------|
--------------------------|--------------------------|
--------------------------|--------------------------|
--6--6--6--6--6--6--6--6--|--6--6--6--6--6--6--6--6--|
--6--6--6--6--6--6--6--6--|--6--6--6--6--6--6--6--6--|
--6--6--6--6--6--6--6--6--|--6--6--6--6--6--6--6--6--|


                                                      
--------------------------|--------------------------|
--------------------------|--------------------------|
--------------------------|--------------------------|
--6--6--6--6--6--6--6--6--|--6--6--6--6--6--6--6--6--|
--6--6--6--6--6--6--6--6--|--6--6--6--6--6--6--6--6--|
--6--6--6--6--6--6--6--6--|--6--6--6--6--6--6--6--6--|


                                                      
--------------------------|--------------------------|
--------------------------|--------------------------|
--------------------------|--------------------------|
--7--7--7--7--7--7--7--7--|--7--7--7--7--7--7--7--7--|
--7--7--7--7--7--7--7--7--|--7--7--7--7--7--7--7--7--|
--7--7--7--7--7--7--7--7--|--7--7--7--7--7--7--7--7--|


                                                                          
--------------------------|--------------------------|-------------------|
--------------------------|--------------------------|-------------------|
--------------------------|--------------------------|-------------------|
--7--7--7--7--7--7--7--7--|--7--7--7--7--7--7--7--7--|--2----------------|
--7--7--7--7--7--7--7--7--|--7--7--7--7--7--7--7--7--|--2----------------|
--7--7--7--7--7--7--7--7--|--7--7--7--7--7--7--7--7--|--2----------------|


                                                                
------------------|----|----|----|----|----|----|----|----|----|
------------------|----|----|----|----|----|----|----|----|----|
------------------|----|----|----|----|----|----|----|----|----|
------------------|----|----|----|----|----|----|----|----|----|
------------------|----|----|----|----|----|----|----|----|----|
------------------|----|----|----|----|----|----|----|----|----|


                                                      
--------------------------|--------------------------|
--------------------------|--------------------------|
--------------------------|--------------------------|
--2--2--2--2--2--2--2--2--|--2--2--2--2--2--2--2--2--|
--2--2--2--2--2--2--2--2--|--2--2--2--2--2--2--2--2--|
--2--2--2--2--2--2--2--2--|--2--2--2--2--2--2--2--2--|


                                                      
--------------------------|--------------------------|
--------------------------|--------------------------|
--------------------------|--------------------------|
--2--2--2--2--2--2--2--2--|--2--2--2--2--2--2--2--2--|
--2--2--2--2--2--2--2--2--|--2--2--2--2--2--2--2--2--|
--2--2--2--2--2--2--2--2--|--2--2--2--2--2--2--2--2--|


                                                                      
----------------------------------|----------------------------------|
----------------------------------|----------------------------------|
----------------------------------|----------------------------------|
--11--11--11--11--11--11--11--11--|--11--11--11--11--11--11--11--11--|
--11--11--11--11--11--11--11--11--|--11--11--11--11--11--11--11--11--|
--11--11--11--11--11--11--11--11--|--11--11--11--11--11--11--11--11--|


                                                                      
----------------------------------|----------------------------------|
----------------------------------|----------------------------------|
----------------------------------|----------------------------------|
--11--11--11--11--11--11--11--11--|--11--11--11--11--11--11--11--11--|
--11--11--11--11--11--11--11--11--|--11--11--11--11--11--11--11--11--|
--11--11--11--11--11--11--11--11--|--11--11--11--11--11--11--11--11--|


                                                      
--------------------------|--------------------------|
--------------------------|--------------------------|
--------------------------|--------------------------|
--6--6--6--6--6--6--6--6--|--6--6--6--6--6--6--6--6--|
--6--6--6--6--6--6--6--6--|--6--6--6--6--6--6--6--6--|
--6--6--6--6--6--6--6--6--|--6--6--6--6--6--6--6--6--|


                                                      
--------------------------|--------------------------|
--------------------------|--------------------------|
--------------------------|--------------------------|
--6--6--6--6--6--6--6--6--|--6--6--6--6--6--6--6--6--|
--6--6--6--6--6--6--6--6--|--6--6--6--6--6--6--6--6--|
--6--6--6--6--6--6--6--6--|--6--6--6--6--6--6--6--6--|


                                                      
--------------------------|--------------------------|
--------------------------|--------------------------|
--------------------------|--------------------------|
--7--7--7--7--7--7--7--7--|--7--7--7--7--7--7--7--7--|
--7--7--7--7--7--7--7--7--|--7--7--7--7--7--7--7--7--|
--7--7--7--7--7--7--7--7--|--7--7--7--7--7--7--7--7--|


                                                                               
--------------------------|--------------------------|----|----|----|----|----|
--------------------------|--------------------------|----|----|----|----|----|
--------------------------|--------------------------|----|----|----|----|----|
--7--7--7--7--7--7--7--7--|--7--7--7--7--7--7--7--7--|----|----|----|----|----|
--7--7--7--7--7--7--7--7--|--7--7--7--7--7--7--7--7--|----|----|----|----|----|
--7--7--7--7--7--7--7--7--|--7--7--7--7--7--7--7--7--|----|----|----|----|----|


                                                                          
----|----|----|----|--------------------------|--------------------------|
----|----|----|----|--------------------------|--------------------------|
----|----|----|----|--------------------------|--------------------------|
----|----|----|----|--2--2--2--2--2--2--2--2--|--2--2--2--2--2--2--2--2--|
----|----|----|----|--2--2--2--2--2--2--2--2--|--2--2--2--2--2--2--2--2--|
----|----|----|----|--2--2--2--2--2--2--2--2--|--2--2--2--2--2--2--2--2--|


                                                      
--------------------------|--------------------------|
--------------------------|--------------------------|
--------------------------|--------------------------|
--2--2--2--2--2--2--2--2--|--2--2--2--2--2--2--2--2--|
--2--2--2--2--2--2--2--2--|--2--2--2--2--2--2--2--2--|
--2--2--2--2--2--2--2--2--|--2--2--2--2--2--2--2--2--|


                                                                      
----------------------------------|----------------------------------|
----------------------------------|----------------------------------|
----------------------------------|----------------------------------|
--11--11--11--11--11--11--11--11--|--11--11--11--11--11--11--11--11--|
--11--11--11--11--11--11--11--11--|--11--11--11--11--11--11--11--11--|
--11--11--11--11--11--11--11--11--|--11--11--11--11--11--11--11--11--|


                                                                      
----------------------------------|----------------------------------|
----------------------------------|----------------------------------|
----------------------------------|----------------------------------|
--11--11--11--11--11--11--11--11--|--11--11--11--11--11--11--11--11--|
--11--11--11--11--11--11--11--11--|--11--11--11--11--11--11--11--11--|
--11--11--11--11--11--11--11--11--|--11--11--11--11--11--11--11--11--|


                                                      
--------------------------|--------------------------|
--------------------------|--------------------------|
--------------------------|--------------------------|
--6--6--6--6--6--6--6--6--|--6--6--6--6--6--6--6--6--|
--6--6--6--6--6--6--6--6--|--6--6--6--6--6--6--6--6--|
--6--6--6--6--6--6--6--6--|--6--6--6--6--6--6--6--6--|


                                                      
--------------------------|--------------------------|
--------------------------|--------------------------|
--------------------------|--------------------------|
--6--6--6--6--6--6--6--6--|--6--6--6--6--6--6--6--6--|
--6--6--6--6--6--6--6--6--|--6--6--6--6--6--6--6--6--|
--6--6--6--6--6--6--6--6--|--6--6--6--6--6--6--6--6--|


                                                      
--------------------------|--------------------------|
--------------------------|--------------------------|
--------------------------|--------------------------|
--7--7--7--7--7--7--7--7--|--7--7--7--7--7--7--7--7--|
--7--7--7--7--7--7--7--7--|--7--7--7--7--7--7--7--7--|
--7--7--7--7--7--7--7--7--|--7--7--7--7--7--7--7--7--|


                                                      
--------------------------|--------------------------|
--------------------------|--------------------------|
--------------------------|--------------------------|
--7--7--7--7--7--7--7--7--|--7--7--7--7--7--7--7--7--|
--7--7--7--7--7--7--7--7--|--7--7--7--7--7--7--7--7--|
--7--7--7--7--7--7--7--7--|--7--7--7--7--7--7--7--7--|


                                                      
--------------------------|--------------------------|
--------------------------|--------------------------|
--------------------------|--------------------------|
--2--2--2--2--2--2--2--2--|--2--2--2--2--2--2--2--2--|
--2--2--2--2--2--2--2--2--|--2--2--2--2--2--2--2--2--|
--2--2--2--2--2--2--2--2--|--2--2--2--2--2--2--2--2--|


                                                      
--------------------------|--------------------------|
--------------------------|--------------------------|
--------------------------|--------------------------|
--2--2--2--2--2--2--2--2--|--2--2--2--2--2--2--2--2--|
--2--2--2--2--2--2--2--2--|--2--2--2--2--2--2--2--2--|
--2--2--2--2--2--2--2--2--|--2--2--2--2--2--2--2--2--|


                                                                      
----------------------------------|----------------------------------|
----------------------------------|----------------------------------|
----------------------------------|----------------------------------|
--11--11--11--11--11--11--11--11--|--11--11--11--11--11--11--11--11--|
--11--11--11--11--11--11--11--11--|--11--11--11--11--11--11--11--11--|
--11--11--11--11--11--11--11--11--|--11--11--11--11--11--11--11--11--|


                                                                      
----------------------------------|----------------------------------|
----------------------------------|----------------------------------|
----------------------------------|----------------------------------|
--11--11--11--11--11--11--11--11--|--11--11--11--11--11--11--11--11--|
--11--11--11--11--11--11--11--11--|--11--11--11--11--11--11--11--11--|
--11--11--11--11--11--11--11--11--|--11--11--11--11--11--11--11--11--|


                                                      
--------------------------|--------------------------|
--------------------------|--------------------------|
--------------------------|--------------------------|
--6--6--6--6--6--6--6--6--|--6--6--6--6--6--6--6--6--|
--6--6--6--6--6--6--6--6--|--6--6--6--6--6--6--6--6--|
--6--6--6--6--6--6--6--6--|--6--6--6--6--6--6--6--6--|


                                                      
--------------------------|--------------------------|
--------------------------|--------------------------|
--------------------------|--------------------------|
--6--6--6--6--6--6--6--6--|--6--6--6--6--6--6--6--6--|
--6--6--6--6--6--6--6--6--|--6--6--6--6--6--6--6--6--|
--6--6--6--6--6--6--6--6--|--6--6--6--6--6--6--6--6--|


                                                      
--------------------------|--------------------------|
--------------------------|--------------------------|
--------------------------|--------------------------|
--7--7--7--7--7--7--7--7--|--7--7--7--7--7--7--7--7--|
--7--7--7--7--7--7--7--7--|--7--7--7--7--7--7--7--7--|
--7--7--7--7--7--7--7--7--|--7--7--7--7--7--7--7--7--|


                                                                          
--------------------------|--------------------------|-------------------|
--------------------------|--------------------------|-------------------|
--------------------------|--------------------------|-------------------|
--7--7--7--7--7--7--7--7--|--7--7--7--7--7--7--7--7--|--2----------------|
--7--7--7--7--7--7--7--7--|--7--7--7--7--7--7--7--7--|--2----------------|
--7--7--7--7--7--7--7--7--|--7--7--7--7--7--7--7--7--|--2----------------|


                                                                            
------------------|------------------|------------------|------------------|
------------------|------------------|------------------|------------------|
------------------|------------------|------------------|------------------|
------------------|------------------|------------------|------------------|
------------------|------------------|------------------|------------------|
------------------|------------------|------------------|------------------|


                                                         
------------------|------------------|------------------|
------------------|------------------|------------------|
------------------|------------------|------------------|
------------------|------------------|------------------|
------------------|------------------|------------------|
------------------|------------------|------------------|


                                                                      
----------------------------------|----------------------------------|
----------------------------------|----------------------------------|
----------------------------------|----------------------------------|
--11--11--11--11--11--11--11--11--|--11--11--11--11--11--11--11--11--|
--11--11--11--11--11--11--11--11--|--11--11--11--11--11--11--11--11--|
--11--11--11--11--11--11--11--11--|--11--11--11--11--11--11--11--11--|


                                                                      
----------------------------------|----------------------------------|
----------------------------------|----------------------------------|
----------------------------------|----------------------------------|
--11--11--11--11--11--11--11--11--|--11--11--11--11--11--11--11--11--|
--11--11--11--11--11--11--11--11--|--11--11--11--11--11--11--11--11--|
--11--11--11--11--11--11--11--11--|--11--11--11--11--11--11--11--11--|


                                                        
|---------------------------|--------------------------|
|---------------------------|--------------------------|
|*--------------------------|--------------------------|
|*--4--4--4--4--4--4--4--4--|--4--4--4--4--6--6--6--6--|
|---4--4--4--4--4--4--4--4--|--4--4--4--4--6--6--6--6--|
|---4--4--4--4--4--4--4--4--|--4--4--4--4--6--6--6--6--|


                                                      
--------------------------|--------------------------|
--------------------------|--------------------------|
--------------------------|--------------------------|
--7--7--7--7--7--7--7--7--|--7--7--7--7--7--7--7--7--|
--7--7--7--7--7--7--7--7--|--7--7--7--7--7--7--7--7--|
--7--7--7--7--7--7--7--7--|--7--7--7--7--7--7--7--7--|


                                                      
--------------------------|--------------------------|
--------------------------|--------------------------|
--------------------------|--------------------------|
--9--9--9--9--9--9--9--9--|--9--9--9--9--9--9--9--9--|
--7--7--7--7--7--7--7--7--|--7--7--7--7--7--7--7--7--|
--------------------------|--------------------------|


                                                        
--------------------------|---------------------------||
--------------------------|---------------------------||
--------------------------|--------------------------*||
--6--6--6--6--6--6--6--6--|--6--6--6--6--6--6--6--6--*||
--4--4--4--4--4--4--4--4--|--4--4--4--4--4--4--4--4---||
--------------------------|---------------------------||


                                                      
--------------------------|--------------------------|
--------------------------|--------------------------|
--------------------------|--------------------------|
--2--2--2--2--2--2--2--2--|--2--2--2--2--2--2--2--2--|
--2--2--2--2--2--2--2--2--|--2--2--2--2--2--2--2--2--|
--2--2--2--2--2--2--2--2--|--2--2--2--2--2--2--2--2--|


                                                      
--------------------------|--------------------------|
--------------------------|--------------------------|
--------------------------|--------------------------|
--2--2--2--2--2--2--2--2--|--2--2--2--2--2--2--2--2--|
--2--2--2--2--2--2--2--2--|--2--2--2--2--2--2--2--2--|
--2--2--2--2--2--2--2--2--|--2--2--2--2--2--2--2--2--|


                                                                      
----------------------------------|----------------------------------|
----------------------------------|----------------------------------|
----------------------------------|----------------------------------|
--11--11--11--11--11--11--11--11--|--11--11--11--11--11--11--11--11--|
--11--11--11--11--11--11--11--11--|--11--11--11--11--11--11--11--11--|
--11--11--11--11--11--11--11--11--|--11--11--11--11--11--11--11--11--|


                                                                      
----------------------------------|----------------------------------|
----------------------------------|----------------------------------|
----------------------------------|----------------------------------|
--11--11--11--11--11--11--11--11--|--11--11--11--11--11--11--11--11--|
--11--11--11--11--11--11--11--11--|--11--11--11--11--11--11--11--11--|
--11--11--11--11--11--11--11--11--|--11--11--11--11--11--11--11--11--|


                                                      
--------------------------|--------------------------|
--------------------------|--------------------------|
--------------------------|--------------------------|
--6--6--6--6--6--6--6--6--|--6--6--6--6--6--6--6--6--|
--6--6--6--6--6--6--6--6--|--6--6--6--6--6--6--6--6--|
--6--6--6--6--6--6--6--6--|--6--6--6--6--6--6--6--6--|


                                                      
--------------------------|--------------------------|
--------------------------|--------------------------|
--------------------------|--------------------------|
--6--6--6--6--6--6--6--6--|--6--6--6--6--6--6--6--6--|
--6--6--6--6--6--6--6--6--|--6--6--6--6--6--6--6--6--|
--6--6--6--6--6--6--6--6--|--6--6--6--6--6--6--6--6--|


                                                      
--------------------------|--------------------------|
--------------------------|--------------------------|
--------------------------|--------------------------|
--7--7--7--7--7--7--7--7--|--7--7--7--7--7--7--7--7--|
--7--7--7--7--7--7--7--7--|--7--7--7--7--7--7--7--7--|
--7--7--7--7--7--7--7--7--|--7--7--7--7--7--7--7--7--|


                                                      
--------------------------|--------------------------|
--------------------------|--------------------------|
--------------------------|--------------------------|
--7--7--7--7--7--7--7--7--|--7--7--7--7--7--7--7--7--|
--7--7--7--7--7--7--7--7--|--7--7--7--7--7--7--7--7--|
--7--7--7--7--7--7--7--7--|--7--7--7--7--7--7--7--7--|


                                                      
--------------------------|--------------------------|
--------------------------|--------------------------|
--------------------------|--------------------------|
--2--2--2--2--2--2--2--2--|--2--2--2--2--2--2--2--2--|
--2--2--2--2--2--2--2--2--|--2--2--2--2--2--2--2--2--|
--2--2--2--2--2--2--2--2--|--2--2--2--2--2--2--2--2--|


                                                      
--------------------------|--------------------------|
--------------------------|--------------------------|
--------------------------|--------------------------|
--2--2--2--2--2--2--2--2--|--2--2--2--2--2--2--2--2--|
--2--2--2--2--2--2--2--2--|--2--2--2--2--2--2--2--2--|
--2--2--2--2--2--2--2--2--|--2--2--2--2--2--2--2--2--|


                                                                      
----------------------------------|----------------------------------|
----------------------------------|----------------------------------|
----------------------------------|----------------------------------|
--11--11--11--11--11--11--11--11--|--11--11--11--11--11--11--11--11--|
--11--11--11--11--11--11--11--11--|--11--11--11--11--11--11--11--11--|
--11--11--11--11--11--11--11--11--|--11--11--11--11--11--11--11--11--|


                                                                      
----------------------------------|----------------------------------|
----------------------------------|----------------------------------|
----------------------------------|----------------------------------|
--11--11--11--11--11--11--11--11--|--11--11--11--11--11--11--11--11--|
--11--11--11--11--11--11--11--11--|--11--11--11--11--11--11--11--11--|
--11--11--11--11--11--11--11--11--|--11--11--11--11--11--11--11--11--|


                                                      
--------------------------|--------------------------|
--------------------------|--------------------------|
--------------------------|--------------------------|
--6--6--6--6--6--6--6--6--|--6--6--6--6--6--6--6--6--|
--6--6--6--6--6--6--6--6--|--6--6--6--6--6--6--6--6--|
--6--6--6--6--6--6--6--6--|--6--6--6--6--6--6--6--6--|


                                                      
--------------------------|--------------------------|
--------------------------|--------------------------|
--------------------------|--------------------------|
--6--6--6--6--6--6--6--6--|--6--6--6--6--6--6--6--6--|
--6--6--6--6--6--6--6--6--|--6--6--6--6--6--6--6--6--|
--6--6--6--6--6--6--6--6--|--6--6--6--6--6--6--6--6--|


                                                      
--------------------------|--------------------------|
--------------------------|--------------------------|
--------------------------|--------------------------|
--7--7--7--7--7--7--7--7--|--7--7--7--7--7--7--7--7--|
--7--7--7--7--7--7--7--7--|--7--7--7--7--7--7--7--7--|
--7--7--7--7--7--7--7--7--|--7--7--7--7--7--7--7--7--|


                                                                            
--------------------------|--------------------------|--------------------||
--------------------------|--------------------------|--------------------||
--------------------------|--------------------------|--------------------||
--7--7--7--7--7--7--7--7--|--7--7--7--7--7--7--7--7--|--2--2--------------||
--7--7--7--7--7--7--7--7--|--7--7--7--7--7--7--7--7--|--2--2--------------||
--7--7--7--7--7--7--7--7--|--7--7--7--7--7--7--7--7--|--2--2--------------||
Comments