Finch - Perfection Through Silence Acoustic Chords & Tabs

 

Perfection Through Silence Acoustic Chords & Tabs

Finch Chords & Tabs

Version: 1 Type: Tab 0 ratings
1 star 2 stars 3 stars 4 stars 5 stars
comments

Perfection Through Silence Acoustic Tab

   
Artist: Finch
Title: Perfection Through Silence (Acoustic)

Tabbed by Nick G.
This tab is almost 100% correct. Some parts I couldn't figure out so I tabbed what 
closest.
Listen to the song for timing and strumming patterns

 /   slide up
 \   slide down
 #x  strum # times
 }#x play part # times
 x   mute

Intro

e|----------------------------------------------------|
B|-1------1-------------------------------------------|
G|---0------0-------0------5\0------------------------|
D|----2------2----5----5/7-------7-----7-------7----0-|
A|-0---0--0------------------------5-----5--8---------|
E|--------------3--------------0-----0----------------|

e|----------------------------------------------|
B|---1-----1------------------------------------|
G|-----0-----0--------------5\0-----------------|
D|-----------------5----5/7-------7-------5-----|
A|-0-----0--------------------------5-----------|
E|--------------3---------------0-------0----1--|

Verse

e|--------------------------------------------------|
B|---1-----1------1-----1-----------------------1---|
G|-----0-----0------0-----0---2-----2-------2----2--|
D|------------------------------0-----0-------0---0-|
A|-0-----0------------------------------------------|
E|--------------3-----3-----0-----0------1----------|

e|----------------------------------------|
B|---1-----1------1-----------------------|
G|-----0-----0------0----2-2---2-----2----|
D|-------------------------------0-----0--|
A|-0-----0--------------------------------|
E|--------------3-----3------0-----0------|

Pre-Chorus

e|------------------------|
B|------------------------|
G|---2------------2-----2-|
D|-3---3----3---3---3---3-|
A|----------------------3-|
E|--------0---0---------1-|

Chorus
[ Tab from: http://www.guitartabs.cc/tabs/f/finch/perfection_through_silence_acoustic_tab.html ]
e|------------------------------------------------------------------|
B|------------------------------------------------------------------|
G|-2-2------------2-2-2-2--0-0-0-0---------------4--444--444-444--4-|
D|-----0----0-0---3-3-3-3--2-2-2-2--7-7-7-7-7----3--333--333-333--3-|
A|-0-----0---0----3-3-3-3--2-2-2-2--7-7-7-7-7-----------------------|
E|----------------1-1-1-1--0-0-0-0--5-5-7-7-5-----------------------|

Verse

e|--------------------------------------------|
B|--------------------------------------------|
G|-----------0-------------------0----------2-|
D|-7----5----2----3----7----5----2----3-----3-|
A|-7-8x-5-8x-2-8x-3-8x-7-8x-5-8x-2-8x-3-16x-3-|
E|-5----3----0----1----5----3----0----1-----1-|

Chorus

e|--------------------------------------------------------------|
B|--------------------------------------------------------------|
G|-----------0------------------------4-xxxx-4-xxxx-4-xxxx-4444-|
D|-7----3----2----7----7----7----7----3-xxxx-3-xxxx-3-xxxx-3333-|
A|-7-8x-3-8x-2-8x-7-4x-7-4x-7-8x-7-8x-2-xxxx-2-xxxx-2-xxxx-2222-|
E|-5----1----0----5----7----5----7----1-xxxx-1-xxxx-1-xxxx-1111-|

e|----------------------------------------------------------------|
B|----------------------------------------------------------------|
G|-----------0------------------------4-xxxx-4-xxxx-4-xxxx-4-xxxx-|
D|-7----3----2----7----7----7----7----3-xxxx-3-xxxx-3-xxxx-3-xxxx-|
A|-7-8x-3-8x-2-8x-7-4x-7-4x-7-8x-7-8x-2-xxxx-2-xxxx-2-xxxx-2-xxxx-|
E|-5----1----0----5----7----5----7----1-xxxx-1-xxxx-1-xxxx-1-xxxx-|

e|----------------------|
B|----------------------|
G|-4-xxxx-4-xxxx-4-xxxx-|
D|-3-xxxx-3-xxxx-3-xxxx-|
A|-2-xxxx-2-xxxx-2-xxxx-|
E|-1-xxxx-1-xxxx-1-xxxx-|

Bridge

e|--------0---------------------|
B|--0-0----0-0------------------|
G|-2-2-2-2--2-2-----------------|
D|---------------0-0-0-0-3-0-0--| }4x
A|---------------0-0-0-0-3-0-0--|
E|------------------------------|

e|------------|
B|------------|
G|------7-----|
D|-7----7-8x--|  }8x
A|-7-8x-5-----|
E|-5----------|

Outtro

e|-------------------------------------------------|
B|---1-----1---------------------------------------|
G|-----0-----0-----0-------------------------------|
D|------------------5-----7-----7---------7--7---0-|
A|-0-----0------------------5-----5----8-------8---|
E|--------------3----3--0-----0-----0--------------|

e|---------------------------|
B|---1-----------------------|
G|-----0------0---------2----|
D|---------------2-----------|
A|-0-----0-------------------|
E|-------------------3-----1-|
Comments