Finch - New Beginnings Chords & Tabs

 

New Beginnings Chords & Tabs

Finch Chords & Tabs

Version: 1 Type: Tab 0 ratings
1 star 2 stars 3 stars 4 stars 5 stars
comments

New Beginnings Tab

   
Song:      New Beginnings
Artist:    Finch
Album:     What it is to Burn
Tabbed By: TheIndustrialAngel (comments to rb211@gre.ac.uk)


Dropped D-flat (C#,G#,C#,F#,A#,D#)

This is more correct than the other one up for New Beginnings

Intro:

     
1:|--------------------------|
2:|--------------------------|
3:|--------------------------|  
4:|--------10----10----------|  
5:|-----8-----8--------------|
6:|--8---------------0-------|

Chorus
                            
1:|--------------------------------|
2:|--------------------------------|
3:|--------------------10\9-9------|
4:|--------10-----10---------------|  Guitar 1
5:|-----8------8--------8\7-7------|
6:|--8--------------0--------------|

                    
1:|--------------------------------|
2:|--------------------------------|
3:|-10--10--10--10---2--2--2--2----|
4:|-10--10--10--10---0--0--0--0----|  Guitar 2
5:|--8---8---8---8---0--0--0--0----|
6:|--8---8---8---8---0--0--0--0----|

Verse:

     
1:|---------------------------------|
2:|---------------------------------|
3:|---------------------------------|
4:|-10--10--10--10--10--10--10--10--| x2    
5:|--8---8---8---8---8---8---8---8--|	(Could be octave lower at  5:|--3---| )
6:|---------------------------------|                              6:|--3---|
pm   . . . . . . . . . . . . . . .                                 pm   .
[ Tab from: http://www.guitartabs.cc/tabs/f/finch/new_beginnings_tab.html ]
     
1:|---------------------------------|
2:|---------------------------------|
3:|---------------------------------|
4:|--7---7---7---7---7---7---7---7--| x2
5:|--5---5---5---5---5---5---5---5--|   (Could be octave lower at  5:|--0---| )
6:|---------------------------------|                              6:|--0---|
pm   . . . . . . . . . . . . . . .                                 pm   .

End of the verse:

1:|---------------------------------|
2:|---------------------------------|
3:|--7---7---7---7---7---7---7---7--|
4:|--7---7---7---7---7---7---7---7--|
5:|--5---5---5---5---5---5---5---5--|
6:|---------------------------------|


Bridge: 

1:|--------------------------------------|----------------------------------|
2:|--------------------------------------|----------------------------------|
3:|--------------------------------------|----------------------------------|
4:|--5--5--5--5--5--5--8--8--8--8--8--8--|-3-3-3-3-3-3-3-3-3-3-3-3-3-3-3-3--|  
5:|--5--5--5--5--5--5--8--8--8--8--8--8--|-3-3-3-3-3-3-3-3-3-3-3-3-3-3-3-3--|
6:|--5--5--5--5--5--5--8--8--8--8--8--8--|-3-3-3-3-3-3-3-3-3-3-3-3-3-3-3-3--|
						twice on 4th time

End with
1:|---------------------------|
2:|---------------------------|
3:|--5-5-5-5-5-5-5-5-5-5-5-5--|
4:|--3-3-3-3-3-3-3-3-3-3-3-3--|
5:|---------------------------|
6:|---------------------------|

Quiet bitver.2:


1:|---------------------------|
2:|---------------------------|
3:|---------------------------|
4:|-10-----------0------------| x3
5:|--8-----------0------------|
6:|--8-----------0------------|

1:|---------------------------|
2:|---------------------------|
3:|-----------------10\7--7---|
4:|-10-----------0------------| x3
5:|--8-----------0---8\7--7---|
6:|--8-----------0------------|


Ending:

     A9
1:|---------------------13---|
2:|--------------------------|
3:|--------------------------|  
4:|--------10------10--------|
5:|-----8------8-------------|
6:|--8-----------------------|
                         



Comments