Finch - New Beginning Chords & Tabs

 

New Beginning Chords & Tabs

Finch Chords & Tabs

Version: 2 Type: Tab 0 ratings
1 star 2 stars 3 stars 4 stars 5 stars
comments

New Beginning Tab

   
Tabber:Kilian McMahon 
e-mail:kilianis@hotmail.com

Hi
This is my first tab hope you enjoy it.



Tuning: Db Gb B E Ab Db

Comments and criticism welcome.




----------------
 1.New Beginnings
 ----------------






   Intro Riff
|-------------------|
|-------3---3-------|
|-----0---0---0-----|   
|-------------------|   
|---3---------------|
|---------------0---|

   Chorus Rhythm
|-------------------------------|
|-------------------------------|
|---5-5-5-5-5-55----------------|    
|---5-5-5-5-5-55-2-2-2-2-2-22---|
|---3-3-3-3-3-33-2-2-2-2-2-22---|
|----------------0-0-0-0-0-00---|


   Chorus Lead
|--------------------------------------|
|-------3---3--------------------------|
|-----0---0---0--------12-11-11-1111---|   
|----------------------x--x--x--x-x----|   
|---3------------------10-9--9--9-9----|
|---------------0----------------------|

   Verse 
|----------------------------------------------------------------------|
|----------------------------------------------------------------------|
|----------------------------------------------------------------------|
|----------------------------------------------------------------------|  
|---5555555555555555555555555555555522222222222222222222222222222222---|
|---3333333333333333333333333333333300000000000000000000000000000000---|
  pm................................................................




 Verse End
|----------------------------------------------------------------------------------|
|----------------------------------------------------------------------------------|
|----------------------------------------------------12-12-12-121212121212121212---|
|----------------------------------------------------x--x--x--x-x-x-x-x-x-x-x-x----|
|---555555555555555555555555555555552222222222222222-10-10-10-101010101010101010---|
|---333333333333333333333333333333330000000000000000-------------------------------|
  pm................................................


[ Tab from: http://www.guitartabs.cc/tabs/f/finch/new_beginning_tab_ver_2.html ]
  Bridge
|----------------------------------------------------------------|
|----------------------------------------------------------------|
|----------------5-5-5-5-5-5-------------------------------------|
|---7 7 7 7 7-7--5-5-5-5-5-5-------------------------------------|  
|---7-7-7-7-7-7--3-3-3-3-3-3--55555555555555555555555555555555---|
|---5-5-5-5-5-5---------------33333333333333333333333333333333---|
                            pm................................


  Bridge End 
|------------------------------------------------------------------------------------------------------------------|
|------------------------------------------------------------------------------------------------------------------|
|----------------5-5-5-5-5-5----------------------------------------------------12121212121212121212121212121212---|
|---7-7-7-7-7-7--5-5-5-5-5-5----------------------------------------------------x-x-x-x-x-x-x-x-x-x-x-x-x-x-x-x----|
|---7-7-7-7-7-7--3-3-3-3-3-3--555555555555555555555555555555555555555555555555--10101010101010101010101010101010---|
|---5-5-5-5-5-5---------------333333333333333333333333333333333333333333333333-------------------------------------|
                            pm................................................ 



   Clean Part                 Clean Part End
|------------|             |-----------------------------|
|------------|             |-----------------------------|
|------------|             |-------------12-11-11-1111---|
|---5----2---|             |---5----2----x--x--x--x-x----|
|---5----2---|             |---5----2----10-9--9--9-9----|
|---3----0---|             |---3----0--------------------|



    
  Ending Rhythm
|-------------------|
|-------------------|
|---5-5-5-5-5-5-----|
|---5-5-5-5-5-5-2---|
|---3-3-3-3-3-3-2---|
|---------------0---|







Playing Order:



Intro Riff   X6
Chorus Rhythm + Chorus Lead   X4 
Verse X2
Verse End X1
Chorus Rhythm + Chorus Lead   X4 
Verse   X2
Verse End   X1
Bridge   X3
Bridge End
Clean Part   X3
Clean Part End   X1   
Chorus Rhythm + Chorus Lead   X4 
Ending Rhythm + Ending Lead   X1
Comments