Finch - Miro Chords & Tabs

 

Miro Chords & Tabs

Finch Chords & Tabs

Version: 1 Type: Tab 0 ratings
1 star 2 stars 3 stars 4 stars 5 stars
comments

Miro Tab

   
-------------------------------------------------------------------------------
			     Miro - Finch
-------------------------------------------------------------------------------
Tabbed by: Jonathan Shupert
Email:shupert@ufl.edu
This one of my favorite songs on "Say Hello to Sunshine." 
Enjoy! Its perfect.

Tuning:DADGBE (tuned half step down)

Intro:
Guitar 1
e|----------------------------------------------------------------------------------------|
B|----------------------------------------------------------------------------------------|
G|---------------44----999-------777------------------------------------------------------| 
D|---8888-xx-44--44----999--999--777--777777---(X4)---------------------------------------|
A|---8888-xx-44--22----777--999--555--777777----------------------------------------------|
D|---8888-xx-44-------------999-------777777----------------------------------------------|

Guitar 2 (the first picked riff is only played the first two times)
e|-----------------------------------------------------------------------------|
B|-----------------------------------------------------------------------------|
G|-------3----------44---999-------777------------(X4)-------------------------|
D|---4-----4----44--44---999--999--777--777777---------------------------------|
A|-1---1-----1--44--22---777--999--555--777777---------------------------------|
D|--------------44------------999-------777777---------------------------------|

Verse:
Guitar 1
e|--------7~-5~--------------------------------------------------------------|
B|---9~---9~-8~--------------------------------------------------------------|
G|---6~---------------(X4)---------------------------------------------------|
D|---------------------------------------------------------------------------|
A|---------------------------------------------------------------------------|
D|---------------------------------------------------------------------------|

Guitar 2
e|----------------------------------------------------------------------------|
B|--------------------5-------------------------------------------------------|
G|----------------------------------------6-----------------------------------|
D|---2222222222222------2------------------------(X4)-------------------------|
A|--[-palm-muted--]----------444444444----------------------------------------|
D|--------------------------[palm-muted]--------------------------------------|

Pre chorus:
Guitar 1
e|---------77--7~--5~-------------------------------------------------------|
B|----9----99--9~--8~-------------------------------------------------------|
G|----6------------------(X4)-----------------------------------------------|
D|--------------------------------------------------------------------------|
A|--------------------------------------------------------------------------|
D|--------------------------------------------------------------------------|

Guitar 2
e|---------------------------------------------------------------------------|
B|---------------------------------------------------------------------------|
G|-------66------------------------------------------------------------------|
D|---7---66---4~-3~------(X4)------------------------------------------------|
A|---7---44---4~-3~----------------------------------------------------------|
D|---7--------4~-3~----------------------------------------------------------|
[ Tab from: http://www.guitartabs.cc/tabs/f/finch/miro_tab.html ]
Chorus:
Guitar 1  (X4)
e|-------------------------------------------------------------------------------------|
B|-------------------------------------------------------------------------------------|
G|------------4---------5--------6------------------4---------5------------------------|
D|--2---------4-(X8)----5-(X8)---6-(X8)---2---------4-(X8)----5-(X8)----7--------------|
A|--2-(X8)----2---------3--------4--------2-(X8)----2---------3---------7-(X8)---------|
D|--2-------------------------------------2-----------------------------7--------------|

Guitar 2  (only played on "I woke up" part of chorus) (X2)
e|-------------------------------------------------4---------------------------------|
B|--5-(X8)---4-(X8)----------4----------------5------5-4-----------------------------|
G|----------------------2-------2-1------6-6----6---------4--------------------------|
D|------------------3-3---3----------------------------------------------------------|
A|-----------------------------------------------------------------------------------|
D|-----------------------------------------------------------------------------------|

Bridge (from note held out directly after chorus)
Guitar 1
e|---------------------------------------------------------------------------|
B|--5~-----------------------------------------------------------------------|
G|--5~----------3h5-2---2-h0-2--0h2------0-----------------------------------|
D|--3~----3h5-3---------------------2~-------(X2)----------------------------|
A|--3~---------------------------------0-------------------------------------|
D|--3~-----------------------------------------------------------------------|

Guitar 2
e|---------------------------------------------------------------------------|
B|-------10--(X8)---8--(X8)--10--(X8)---8-(X4)-------------------------------|
G|-------10---------9--------10---------9------------------------------------|
D|----------------------------------------------333333----777----------------|
A|----------------------------------------------333333----777----------------|
D|----------------------------------------------333333----777----------------|

Guitar 1
e|---------------------------------------------------------------------------|
B|---------------------------------------------------------------------------|
G|------------3h5-2---2-h0-2--0h2------0-------------------------------------|
D|------3h5-3---------------------2~-------(X2)------------------------------|
A|-----------------------------------0---------------------------------------|
D|---------------------------------------------------------------------------|

Guitar 2
e|-----8---------------8----------5-------------5-7-8------8--------8------13-(X8)-12(X8)-------------|
B|-------6--5h6h5-5--8---6---5-6-8-8-6-5---5-6-8-----5------5h65--8---10------------------------------|
G|-----------------------------------------------------------------------[play-these-two-notes-twice]-|
D|--------------------------[-played--extremely-fast--]-----------------------------------------------|
A|----------------------------------------------------------------------------------------------------|
D|----------------------------------------------------------------------------------------------------|

Outro:
Guitar 1
e|-----------------------------------------------------------|
B|--5--------------------------------------------------------|
G|--5--------------------------------------------------------|
D|--7--(X8)-7-7-7-7----3-3-3-3-------------------------------|
A|--5-------7-7-7-7----3-3-3-3-------------------------------|
D|--0-------7-7-7-7----3-3-3-3-------------------------------|

Guitar 2 (only played at very end)
e|--------13-(X8)-12(X8)----------------------------------|
B|--------------------------------------------------------|
G|--------------------------------------------------------|
D|--------------------------------------------------------|
A|--------------------------------------------------------|
D|--------------------------------------------------------|

Intro
Verse 
Pre chorus
Chorus
Intro
Verse 
Pre Chorus
Chorus
Bridge
Outro

| /  slide up
| \  slide down
| h  hammer-on
| p  pull-off
| ~  ring out
| +  harmonic
| x  Mute note

========================================================================
Comments