Finch - Mad World Chords & Tabs

 

Mad World Chords & Tabs

Finch Chords & Tabs

Version: 2 Type: Tab 0 ratings
1 star 2 stars 3 stars 4 stars 5 stars
comments

Mad World Tab

tabbed by adam sisco
standard tuning
[ Tab from: http://www.guitartabs.cc/tabs/f/finch/mad_world_tab_ver_2.html ]
intro
--7-------------0------7----------------------|
-8-7-8-7-5-----0-0----8-7-8-7-8-10------------|
------9---7-6-6---6-0------9------------------|
-------------7-----7--------------------------|
----------------------------------------------|
----------------------------------------------|
Verse 1
----------------------------------------------|
----------------------------------------------|
----------xx33333333xx33333333----------------|
----------xx00000000xx22222222-00000000-------|
--22222222xx00000000xx00000000-22222222-------|
--22222222xx22222222xx---------33333333-------|
--00000000xx33333333xx---------00000000-------|
Chorus
-------------------|
-------------------|
----------22222222-|
-22222222-22222222-|do it while he is singing "i think its kinda happy...
-22222222-00000000-|then when he goes ..run in circles its a verry verry..
-------------------|pause and start going again when he says verry verry...
Verse 2

----------------------------------------------|
----------------------------------------------|
----------xx33333333xx33333333----------------|
----------xx00000000xx22222222-00000000-------|
--22222222xx00000000xx00000000-22222222-------|
--22222222xx22222222xx---------33333333-------|
--00000000xx33333333xx---------00000000-------|

chorus
-------------------|
-------------------|
----------22222222-|
-22222222-22222222-|do it while he is singing "i think its kinda happy...
-22222222-00000000-|then when he goes ..run in circles its a verry verry..
-------------------|pause and start going again when he says verry verry...

then keep going like this
-------------------|
-------------------|when hes saying "enlargen your world" and thats all.
----------22222222-|
-22222222-22222222-|
-22222222-00000000-|
-------------------|

i tabbed this without a guitar in my hands, so the intro might be off on some frets or 
youl be able to figure it out.
Comments