Finch - Mad World Chords & Tabs

 

Mad World Chords & Tabs

Finch Chords & Tabs

Version: 1 Type: Tab 0 ratings
1 star 2 stars 3 stars 4 stars 5 stars
comments

Mad World Tab

   
This song is amazinly kl!

Intro

--------7-------------------------------------0-0--0---|
---8-------7---8----5----7-----3---2-----2---------0---|
--------------------------------------2----------------|
-------------------------------------------------------|
-------------------------------------------------------|
-------------------------------------------------------|
[ Tab from: http://www.guitartabs.cc/tabs/f/finch/mad_world_tab.html ]
--------7--------8-------------------------------------|
--8-----------7------5----7--8--10---------------------|
-------------------------------------------------------|
-------------------------------------------------------|
-------------------------------------------------------|
-------------------------------------------------------|

Verse 1 & 2

E Minor
G
D
A
Comments