Finch - Letters To You Chords & Tabs

 

Letters To You Chords & Tabs

Finch Chords & Tabs

Version: 9 Type: Tab 0 ratings
1 star 2 stars 3 stars 4 stars 5 stars
comments

Letters To You Tab

Band: Finch
Song: Letters To You
Album: What It Is To Burn

I saw these guys live and watched the guitar tech tune his guitar,
so I know itís right. The tuning is in Drop Db, so it goes (Db/Ab/Db/Gb/Bb/Eb)

Intro
Eb-0-0-0-0-0-0-0-0-----------------------
Bb-3-3-3-3-3-3-3-3-----------------------
Gb-2-2-2-2-2-2-2-2----a lot of times-----
Db-0-0-0-0-0-0-0-0-----------------------
Ab---------------------------------------
Db---------------------------------------

Verse
One guitar plays this palm muted the other doesnít
[ Tab from: http://www.guitartabs.cc/tabs/f/finch/letters_to_you_tab_ver_9.html ]
Eb-------------------------------------
Bb-------------------------------------
Gb-7-----------------------------------
Db-7-x16-4------5-------7--------------
Ab-5-----4-x16--5-x16---7-x16----------
Db-------4------5-------7--------------

Chorus

Eb---------------------------------------------
Bb---------------------------------------------
Gb---------------------------------------------
Db-14-------15--------0------------------------
Ab-14-x12ó15-x12------0 hold for a long time---
Db-14-------15--------0------------------------

End song on

Eb-------------------------------------------------
Bb-------------------------------------------------
Gb-------------------------------------------------
Db-0--------------------------------------12-------
Ab-0-hold for a long time-----------------12-stop!-
Db-0--------------------------------------12-------
Comments