Finch - Letters To You Chords & Tabs

 

Letters To You Chords & Tabs

Finch Chords & Tabs

Version: 3 Type: Tab 0 ratings
1 star 2 stars 3 stars 4 stars 5 stars
comments

Letters To You Tab

------------------------------------------------------------------------------- 
LETTERS TO YOU - Finch 
------------------------------------------------------------------------------- 
By: AnnA!! (punkrocker8595@aol.com)

I couldn't find a really accurate tab, some were close but they had a few 
errors so i decided just to tab it my self. I think you'll find it to be 
pretty damn close to the recorded version. Its just the first guitar part 
though, i'll get around to doing the second part later. Let me know what you 
think of it, since its my first attempt at a guitar tab any heckling would 
be appreciated. 

Listen to the song for the rythem 

x=dead note 
*=palm mute 

Intro: 
Closest chord i could find 
e|----4--------------| 
B|----4--------------| 
G|----6----(strum)---| 
D|----6--------------| 
A|----4--------------| 
E|----x--------------| 

Verse: (Can't you see that i wan't to be....) 
e|----------------------------------------------------------------| 
B|----------------------------------------------------------------| 
G|----6*********--------------------------------------------------| 
D|----6*********---3*********---4*********---6*********------X2---| 
A|----4*********---4*********---4*********---6*********-----------| 
E|-----------------1*********---2*********---4*********-----------| 

1st Bridge: (Do you notice....) 
e|----------------------------------------------------------------| 
B|----------------------------------------------------------------| 
G|------------------------------------6666666655555555------------| 
D|---3-33-33-33-33--4-44-44-44-44-----6666666666666666-------x2---| 
A|---4-44-44-44-44--4-44-44-44-44-----4444444433333333------------| 
E|---1-11-11-11-11--2-22-22-22-22---------------------------------| 

Chorus: (I want you to know that....) 
e|----------------------------------------------------------------| 
B|----------------------------------------------------------------| 
G|------------------------------666666666666----------------------| 
D|----888888888888-444444444444-666666666666-666666666666----x2---| 
A|----888888888888-444444444444-444444444444-666666666666---------| 
E|----666666666666-222222222222--------------444444444444---------| 

Intro: 
e|----4--------------| 
B|----4--------------| 
G|----6----(strum)---| 
D|----6--------------| 
A|----4--------------| 
E|----x--------------| 
[ Tab from: http://www.guitartabs.cc/tabs/f/finch/letters_to_you_tab_ver_3.html ]
Verse: 
e|----------------------------------------------------------------| 
B|----------------------------------------------------------------| 
G|----6*********--------------------------------------------------| 
D|----6*********---3*********---4*********---6*********------X2---| 
A|----4*********---4*********---4*********---6*********-----------| 
E|-----------------1*********---2*********---4*********-----------| 

1st Bridge: 
e|----------------------------------------------------------------| 
B|----------------------------------------------------------------| 
G|------------------------------------6666666655555555------------| 
D|---3-33-33-33-33--4-44-44-44-44-----6666666666666666-------x2---| 
A|---4-44-44-44-44--4-44-44-44-44-----4444444433333333------------| 
E|---1-11-11-11-11--2-22-22-22-22---------------------------------| 

Chorus: (i want you to know that...) 
e|----------------------------------------------------------------| 
B|----------------------------------------------------------------| 
G|------------------------------666666666666----------------------| 
D|----888888888888-444444444444-666666666666-666666666666----x4---| 
A|----888888888888-444444444444-444444444444-666666666666---------| 
E|----666666666666-222222222222--------------444444444444---------| 

Pre-Bridge: 
e|----------------------------------| 
B|----------------------------------| 
G|----6-----------------------------| 
D|----6-(1st bridge-strum pattern)--| 
A|----4-----------------------------| 
E|----------------------------------| 

2nd Bridge: (pretty well just this the whole way through) 
e|----------------------------------------------------------------| 
B|----------------------------------------------------------------| 
G|-----6666666666666666666666666666666666666666666666-------------| 
D|-----6666666666666666666666666666666666666666666666-----x4------| 
A|-----4444444444444444444444444444444444444444444444-------------| 
E|----------------------------------------------------------------| 

Chorus: 
e|----------------------------------------------------------------| 
B|----------------------------------------------------------------| 
G|------------------------------666666666666----------------------| 
D|----888888888888-444444444444-666666666666-666666666666----x6---| 
A|----888888888888-444444444444-444444444444-666666666666---------| 
E|----666666666666-222222222222--------------444444444444---------| 

Intro: 
e|----4--------------| 
B|----4--------------| 
G|----6----(strum)---| 
D|----6--------------| 
A|----4--------------| 
E|----x--------------| 

Outro: Guitar 1 plays the intro till the song is done. 
Comments