Finch - Letters To You Chords & Tabs

 

Letters To You Chords & Tabs

Finch Chords & Tabs

Version: 13 Type: Tab 0 ratings
1 star 2 stars 3 stars 4 stars 5 stars
comments

Letters To You Tab

   
Finch - Letters to You
Tabbed by Iain Reilly

For more tabs by various bans: http://www.geocities.com/procession83

Intro (Guitar 1) x1
Eb|-----------------------------------------------------------|
Bb|-3-3-3-3-3-3-3-3-3-3-3-3-3-3-3-3-3-3-3-3-3-3-3-3-3-3-3-3-3-|
Gb|-2-2-2-2-2-2-2-2-2-2-2-2-2-2-2-2-2-2-2-2-2-2-2-2-2-2-2-2-2-|
Db|-0-0-0-0-0-0-0-0-0-0-0-0-0-0-0-0-0-0-0-0-0-0-0-0-0-0-0-0-0-|
Ab|-----------------------------------------------------------|
Db|-----------------------------------------------------------|

Verse (Guitar 1) x2
Eb|-----------------------------------------------------------------|
Bb|-----------------------------------------------------------------|
Gb|-----------------------------------------------------------------|
Db|-----------------------------------------------------------------|
Ab|-0-0-0-0-0-0-0-0-4-4-4-4-4-4-4-4-5-5-5-5-5-5-5-5-7-7-7-7-7-7-7-7-|
Db|-0-0-0-0-0-0-0-0-4-4-4-4-4-4-4-4-5-5-5-5-5-5-5-5-7-7-7-7-7-7-7-7-|
PM  ...............................................................

Verse (Guitar 2) x1  
Eb|-----------------------------------------------------------------|
Bb|-----------------------------------------------------------------|
Gb|-7--7--7--7--7-7-------------------------------------------------|
Db|-x--x--x--x--x-x-4--4--4--4--4-4-5--5--5--5--5-5-7--7--7--7--7-7-|
Ab|-5--5--5--5--5-5-4--4--4--4--4-4-5--5--5--5--5-5-7--7--7--7--7-7-|
Db|-----------------4--4--4--4--4-4-5--5--5--5--5-5-7--7--7--7--7-7-|

Eb|-----------------------------------------------------------------|
Bb|-----------------------------------------------------------------|
Gb|-7------7----9---7---------6-----7--------6------7---9--9--9-9-9-|
Db|-x------x----x---x---------x-----x--------x------x---x--x--x-x-x-|
Ab|-5------5----7---5---------4-----5--------4------5---7--7--7-7-7-|
Db|-----------------------------------------------------------------|

Pre-Chorus (Guitar 1) x2
Eb|-------------------------------------------------------------------------|
Bb|-------------------------------------------------------------------------|
Gb|-------------------------------------------------------------------------|
Db|-4-4--4-4--4-4--4-4--4-4-4--5-5--5-5--5-5--5-5--5-5-5--0----0-----0----0-|
Ab|-4-4--4-4--4-4--4-4--4-4-4--5-5--5-5--5-5--5-5--5-5-5--0----0-----0----0-|
Db|-4-4--4-4--4-4--4-4--4-4-4--5-5--5-5--5-5--5-5--5-5-5--0----0-----0----0-|

Pre-Chorus (Guitar 2) x2
Eb|-----------------------------|
Bb|-----------------------------|
Gb|---11-11-11---12-11-11-11-11-|
Db|-0--x--x--x-0--x--x--x--x--x-|
Ab|-0--9--9--9-0-10--9--9--9--9-|
Db|-0----------0----------------|

Chorus (Guitar 1) x2
Eb|-------------------------------------------------|
Bb|-------------------------------------------------|
Gb|-------------------------------------------------|
Db|-9-9-9-9-9-9-5-5-5-5-5-5-0-0-0-0-0-0-4-4-4-4-4-4-|
Ab|-9-9-9-9-9-9-5-5-5-5-5-5-0-0-0-0-0-0-4-4-4-4-4-4-|
Db|-9-9-9-9-9-9-5-5-5-5-5-5-0-0-0-0-0-0-4-4-4-4-4-4-|

Chorus (Guitar 2) x1
Eb|-------------------------------------------------------------|
Bb|-------------------------------------------------------------|
Gb|-------------------------7-7-7-7-7-7-7-7-7-7-7-7-------------|
Db|-9-9-9-9-9-9-5-5-5-5-5-5-x-x-x-x-x-x-x-x-x-x-x-x-4-4-4-4-4-4-|
Ab|-9-9-9-9-9-9-5-5-5-5-5-5-5-5-5-5-5-5-5-5-5-5-5-5-4-4-4-4-4-4-|
Db|-9-9-9-9-9-9-5-5-5-5-5-5-------------------------4-4-4-4-4-4-|

Eb|-------------------------------------------------------------------|
Bb|-------------------------------------------------------------------|
Gb|-11-11-11-11-11-11-7-7-7-7-7-7-7-7-7-7-7-7-7-7-7-7-7-7-------------|
Db|--9--9--9--9--9--9-5-5-5-5-5-5-x-x-x-x-x-x-x-x-x-x-x-x-4-4-4-4-4-4-|
Ab|--9--9--9--9--9--9-5-5-5-5-5-5-5-5-5-5-5-5-5-5-5-5-5-5-4-4-4-4-4-4-|
Db|--9--9--9--9--9--9-5-5-5-5-5-5-------------------------4-4-4-4-4-4-|
[ Tab from: http://www.guitartabs.cc/tabs/f/finch/letters_to_you_tab_ver_13.html ]
Bridge (Guitar 1) x1
Eb|---------------------------|
Bb|-3-3-3-3-3-3-3-3-3-3-3-3-3-|
Gb|-2-2-2-2-2-2-2-2-2-2-2-2-2-|
Db|-0-0-0-0-0-0-0-0-0-0-0-0-0-|
Ab|---------------------------|
Db|---------------------------|

Verse x2
Pre-Chorus x2
Chorus x4

Interlude Part 1 (Guitar 2) x1
Eb|--------------------------------------------------|
Bb|--------------------------------------------------|
Gb|-7-7--7-7--7-7--7-7--7-7--7-7--7-7--7-7--7-7--7-7-|
Db|-x-x--x-x--x-x--x-x--x-x--x-x--x-x--x-x--x-x--x-x-|
Ab|-5-5--5-5--5-5--5-5--5-5--5-5--5-5--5-5--5-5--5-5-|
Db|--------------------------------------------------|

Interlude Part 2 (Guitar 2) x3
Eb|-------------------------------------------------------|
Bb|-------------------------------------------------------|
Gb|-7-7--7-7--7-7--7-7--7-7--7-7--7-7--7-7--7-7--7-7--7-7-|
Db|-x-x--x-x--x-x--x-x--x-x--x-x--x-x--x-x--x-x--x-x--x-x-|
Ab|-5-5--5-5--5-5--5-5--5-5--5-5--5-5--5-5--5-5--5-5--5-5-|
Db|-------------------------------------------------------|

Interlude Part 2 (Guitar 1) x4
Eb|-----------------------------------------------------------------|
Bb|-----------------------------------------------------------------|
Gb|-7-7-7-7-7-7-6-6-6-6-6-6-7-7-7-7-9-9-9-9-9-9-7-7-7-7-7-7-6-6-6-6-|
Db|-x-x-x-x-x-x-x-x-x-x-x-x-x-x-x-x-x-x-x-x-x-x-x-x-x-x-x-x-x-x-x-x-|
Ab|-5-5-5-5-5-5-4-4-4-4-4-4-5-5-5-5-7-7-7-7-7-7-5-5-5-5-5-5-4-4-4-4-|
Db|-----------------------------------------------------------------|

Interlude End (Guitar 1) x1 w/ some kind of effect
Eb|----------------------------------------------------------------------|
Bb|----------------------------------------------------------------------|
Gb|----------------------------------------------------------------------|
Db|----------------------------------------------------------------------|
Ab|----------------------------------------------------------------------|
Db|-9-9-9-9-9-9-9-9-5-5-5-5-5-5-5-5-0-0-0-0-0-0-0-0-4-4-4-4-4-4-4-4-20\\-|

Final Chorus (Guitar 1) x5
Eb|-------------------------------------------------|
Bb|-------------------------------------------------|
Gb|-------------------------------------------------|
Db|-9-9-9-9-9-9-5-5-5-5-5-5-0-0-0-0-0-0-4-4-4-4-4-4-|
Ab|-9-9-9-9-9-9-5-5-5-5-5-5-0-0-0-0-0-0-4-4-4-4-4-4-|
Db|-9-9-9-9-9-9-5-5-5-5-5-5-0-0-0-0-0-0-4-4-4-4-4-4-|

Final Chorus (Guitar 2) x5
Eb|---------------------------------------------------------------|
Bb|---------------------------------------------------------------|
Gb|---------------------------7-7--7-7--7-7--7-7--7-7-----6---6---|
Db|-9-9-11-9-11-9-5-5-7-5-7-5-x-x--x-x--x-x--x-x--x-x-4-4-4-4-4-4-|
Ab|-9-9--9-9--9-9-5-5-5-5-5-5-5-5--5-5--5-5--5-5--5-5-4-4-4-4-4-4-|
Db|-9-9--9-9--9-9-5-5-5-5-5-5-------------------------4-4-4-4-4-4-|

Outro (Guitar 1) x1
Eb|---------------------------------------------------------|
Bb|-3-3-3-3-3-3-3-3-3-3-3-3-3-3-3-3-3-3-3-3-3-3-3-3-3-3-3-3-|
Gb|-2-2-2-2-2-2-2-2-2-2-2-2-2-2-2-2-2-2-2-2-2-2-2-2-2-2-2-2-|
Db|-0-0-0-0-0-0-0-0-0-0-0-0-0-0-0-0-0-0-0-0-0-0-0-0-0-0-0-0-|
Ab|---------------------------------------------------------|
Db|---------------------------------------------------------|

Eb|-----------------------------------------------------------|
Bb|-3-3-3-3-3-3-3-3-3-3-3-3-3-3-3-3-3-3-3-3-3-3-3-3-3-3-3-3-3-|
Gb|-2-2-2-2-2-2-2-2-2-2-2-2-2-2-2-2-2-2-2-2-2-2-2-2-2-2-2-2-2-|
Db|-0-0-0-0-0-0-0-0-0-0-0-0-0-0-0-0-0-0-0-0-0-0-0-0-0-0-0-0-0-|
Ab|---------------------------------------------------------0-|
Db|---------------------------------------------------------0-|

Outro (Guitar 2) x1
Eb|-----------------------------------------------------------|
Bb|---------------------------------------------------------3-|
Gb|---------------------------------------------------------2-|
Db|-0-------------------------------------------------------0-|
Ab|-0-------------------------------------------------------0-|
Db|-0-------------------------------------------------------0-|

Comments/Rants/Corrections: Obscure_Divine_Manifestation@hotmail.com
Comments