Finch - Letters To You Chords & Tabs

 

Letters To You Chords & Tabs

Finch Chords & Tabs

Version: 1 Type: Bass Tab 0 ratings
1 star 2 stars 3 stars 4 stars 5 stars
comments

Letters To You Bass Tab

Finch:Letters to you 
What it is to burn
tabbed by Marc Hind

guitar intro
VERSE X2
G-----------------------------------------------------------------------
D-----------------------------------------------------------------------
A---4444444444444444----------------------------------------------------
E--------------------1111111111111111-2222222222222222-4444444444444444-

BRIDGE X2
G--------------------------------------------
D--------------------------------------------
A-----------------------4444444444444444-----
E---1-1-1-111-3-3-3-333----------------------
[ Tab from: http://www.guitartabs.cc/tabs/f/finch/letters_to_you_btab.html ]
CHORUS X2
G-------------------------------------------------------------------------
D-------------------------------------------------------------------------
A-------------------------------------4444444444444444--------------------
E---6666666666666666-2222222222222222-------------------1111111111111111--

GUITAR INTRO

VERSE X2
BRIDGE X2
CHORUS X4

MIDDLE BITTY X2 "NO MORE LOOKIN I HAVE FOUND HOPE"
G-----------------------------------------------
D-----------------------------------------------
A-----------------------4-44-4-44-4-44-4-44-----
E---2-22-2-22-2-22-2-22-------------------------

GUITAR ONLY

CHOPRUS X4

OUTRO 

G------------------------
D------------------------
A---------------------4--
E---2222222222222222-----
Comments