Finch - Hopeless Host Chords & Tabs

 

Hopeless Host Chords & Tabs

Finch Chords & Tabs

Version: 1 Type: Tab 0 ratings
1 star 2 stars 3 stars 4 stars 5 stars
comments

Hopeless Host Tab

   
--------------------------------------------------------------
		Hopeless Host
		   by Finch
		     from Say Hello to Sunshine
--------------------------------------------------------------
Tabbed by Brian Rozboril
email: ieatlotsapaste@aol.com
Tuning: Standard tuning dropped a half step down.

Intro/Verse
eb|-----------------------------0--|
Bb|-----------------------------0--|The Intro and the
Gb|-------------3-3-6-6-2-2-2-2----|verses are exactly the 	
Db|-2-2-3-3-5-5-3-3-6-6-2-2-2-2----|same, except that the
Ab|-2-2-3-3-5-5-1-1-4-4-0-0-0-0----|verses are palm muted.
Eb|-0-0-1-1-3-3--------------------| 

Pre-Chorus 1
eb|--------------------------------------------------------------------------|
Bb|--------------------------------------------------------------------------|
Gb|--------------4-2---------------4-2---------------4-2---------------4-4-7-| 	
Db|----4-4-------4-2-----4-4-------4-2-----4-4-------4-2-----4-4-------2-4-5-| 
Ab|3-3-----3-3-3-2-0-3-3-----3-3-3-2-0-3-3-----3-3-3-2-0-3-3-----3-3-3-0-2-3-| 
Eb|--------------------------------------------------------------------------| 

Chorus 1
eb|---------------------------------------------------------------|
Bb|---------------------------------------------------------------| Play this 
Gb|---------------------------------------------------------------| two times.	
Db|---------------------5-5--------------------------------1-1-2--| 
Ab|-2-2---------3-3-0-0-----0-0-3--2-2---------3-3-1-1-2-2--------| 
Eb|-----3-3-0-0------------------------3-3-0-0--------------------| 

Play the Verse again.  After that, play this...

Pre-Chorus 2(Not much different. There's now a diminished 5th in the Ab chord.)
eb|--------------------------------------------------------------------------|
Bb|--------------------------------------------------------------------------|
Gb|--------------4-2---------------4-2---------------4-2---------------4-4-7-| 	
Db|----4-4-------4-1-----4-4-------4-1-----4-4-------4-1-----4-4-------2-4-5-| 
Ab|3-3-----3-3-3-2-0-3-3-----3-3-3-2-0-3-3-----3-3-3-2-0-3-3-----3-3-3-0-2-3-| 
Eb|--------------------------------------------------------------------------| 
[ Tab from: http://www.guitartabs.cc/tabs/f/finch/hopeless_host_tab.html ]
Chorus 2
eb|---------------------------------------------------------------|
Bb|---------------------------------------------------------------| Play this 
Gb|---------------------------------------------------------------| two times.	
Db|---------------------5-5--------------------------------1-1-2--| 
Ab|-2-2---------3-3-0-0-----0-0-3--2-2---------3-3-1-1-2-2--------| 
Eb|-----3-3-0-0------------------------3-3-0-0--------------------|

eb|---------------------------------------------------------------|
Bb|---------------------8-8---------------------------------------|And this 
Gb|-4-4-0-0-----5-5-2-2-7-7-2-2-5--4-4-0-0-----5-5-3-3-4-4-8-8-9--| two times. 	
Db|-4-4-0-0-2-2-5-5-2-2-5-5-2-2-5--4-4-0-0-2-2-5-5-3-3-4-4-8-8-9--| 
Ab|-2-2-x-x-2-2-3-3-0-0-----0-0-3--2-2-x-x-2-2-3-3-1-1-2-2-6-6-7--| 
Eb|-----3-3-0-0------------------------3-3-0-0--------------------| 

Bridge
eb|--------------|
Bb|--------------|
Gb|-9-9-9-9--9/--| 	
Db|-9-9-9-9--9/--| 
Ab|-7-7-7-7--7/--| 
Eb|-0-0-0-0------| 

eb|---------------------------------------------------------------|
Bb|--8-8-8-8-8--8-8-8-8-8-12-12-12-12-10-10-10-10-13-13-13-13-13--|
Gb|--x-x-x-x-x--x-x-x-x-x--x--x--x--x--x--x--x--x--x--x--x--x--x--| 	
Db|--5-5-5-5-5--5-5-5-5-5--9--9--9--9--7--7--7--7-10-10-10-10-10--| 
Ab|---------------------------------------------------------------|
Eb|---------------------------------------------------------------| 

eb|--------------------------|
Bb|-13-13-13-13-13-9-9-9-----|Replay these lines four times.
Gb|--x--x--x--x--x-x-x-x-----|The last time, play the chord 	
Db|-10-10-10-10-10-6-6-6-(2)-| in the ().
Ab|----------------------(2)-|
Eb|----------------------(0)-| 

After a while, and some feedback, play...
Guitar 1
eb|---------|
Bb|---------|This goes through the 
Gb|---------|whole soft part of the song. 	
Db|-10-9-7--| 
Ab|---------| 
Eb|---------| 

Guitar 2 Come in after he sings the "Focus on the fire..." part.
eb|--------------------------------------------------|
Bb|----------------------------------------10--------|Play twice and
Gb|--------12----------------------12----------------|listen to song  	
Db|-9-10-9-----10------10--9-10-9-----10-9----10-9---|for timing, it's 
Ab|-----------------10-------------------------------|really soft.
Eb|--------------------------------------------------| 

eb|------|
Bb|--8---|Listen for rythem.
Gb|--x---| 	
Db|--5---| 
Ab|------| 
Eb|------| 
After this, play the heavy part of the bridge again until the end.

| /  slide up
| \  slide down
| h  hammer-on
| p  pull-off
| ~  vibrato
| +  harmonic
| x  Mute note
|...(pm) Palm Mute
===============================================================================
Comments