Finch - Grey Matter Chords & Tabs

 

Grey Matter Chords & Tabs

Finch Chords & Tabs

Version: 3 Type: Tab 0 ratings
1 star 2 stars 3 stars 4 stars 5 stars
comments

Grey Matter Tab

   
Finch - Grey Matter
Transcribed By: Stephen Saldivar

e|-----2-----2-----2---------------------------------------------------
B|------4-----4--------------------------------------------------------
G|-3h4----3h4---3h4----------------------------------------------------
D|---------------------------------------------------------------------
A|---------------------------------------------------------------------
E|---------------------------------------------------------------------

e|---------------------------------------------------------------------
B|-----------0-0-------------------------------------------------------
G|---4---4----3--------------------------------------------------------
D|--2-2-2-2-1---1------------------------------------------------------
A|-4---4---2-----2-----------------------------------------------------
E|---------------------------------------------------------------------

e|---------------------------------------------------------------------
B|---------------------------------------------------------------------
G|-xxxxxxx-444-44444444--444444444444---------------------------------
D|-xxxxxxx-222-22222222--111111111111---------------------------------
A|-xxxxxxx-444-44444444--222222222222---------------------------------
E|---------------------------------------------------------------------
[ Tab from: http://www.guitartabs.cc/tabs/f/finch/grey_matter_tab_ver_3.html ]
e|---------------------------------------------------------------------
B|---------------------------------------------------------------------
G|---------------------------------------------------------------------
D|-6666666666666666-2222-9999999999999999-6666666666666666-8888-9999999
A|-6666666666666666-2222-9999999999999999-6666666666666666-8888-9999999
E|-4444444444444444-0000-7777777777777777-4444444444444444-6666-7777777

-----------------------------------------------------------------------
-----------------------------------------------------------------------
-----------------------------------------------------------------------
999999999--------------------------------------------------------------
999999999--------------------------------------------------------------
777777777--------------------------------------------------------------

e|---------------------------------------------------------------------
B|---------------------------------------------------------------------
G|-8888888888888888-10101010-11111111111111111111111111111111----------
D|-xxxxxxxxxxxxxxxx-x-x-x-x-x-x-x-x-x-x-x-x-x-x-x-x-x-x-x-x-----------
A|-6666666666666666-8-8-8-8--9-9-9-9-9-9-9-9-9-9-9-9-9-9-9-9-----------
E|---------------------------------------------------------------------

e|---------------------------------------------------------------------
B|---------------------------------------------------------------------
G|------x-33333h4------------------------------------------------------
D|-444-x-----------2-22222-222222--------------------------------------
A|-444-x-----------2-22222-222222--------------------------------------
E|-222-x-----------0-00000-000000--------------------------------------

e|---------------------------------------------------------------------
B|---------------------------------------------------------------------
G|------------------88888888-------------------------------------------
D|-9999999999999999-88888888-44444444----------------------------------
A|-9999999999999999-66666666-44444444----------------------------------
E|-7777777777777777----------22222222----------------------------------
Comments