Finch - Grey Matter Chords & Tabs

 

Grey Matter Chords & Tabs

Finch Chords & Tabs

Version: 2 Type: Tab 0 ratings
1 star 2 stars 3 stars 4 stars 5 stars
comments

Grey Matter Tab

Artist-Finch
Song-Grey Matter
Album-What It Is To Burn 
www.finchmusic.com

Intro: (6x) 
e|----2-------2-------2---|-----------------| 
B|------4-------4---------|-----------------| 
G|3h4-----3h4-----3h4-----|-x-x-x-x-x-x-x-x-| 
D|------------------------|-x-x-x-x-x-x-x-x-| 
A|------------------------|-x-x-x-x-x-x-x-x-| 
E|------------------------|-x-x-x-x-x-x-x-x-| 

1st Verse: (You figure out strumming) 
e|---------------------------------------------------------------------------| 
B|---------------------------------------------------------------------------| 
G|-4----4--------------------------------------------------------------------| 
D|-2----1--------------------------------------------------------------------| 
A|-4----2--------------------------------------------------------------------| 
E|---------------------------------------------------------------------------| 

Pre Chorus: "Would it be so bad..." (2x) 
e|---------------------------------------------------------------------------| 
B|---------------------------------------------------------------------------| 
G|----------------8---10---4--11---------------------------------------------| 
D|6---8---9---6---x----x---x---x---------------------------------------------| 
A|6---8---9---6---6----8---2---9---------------------------------------------| 
E|4---6---7---4--------------------------------------------------------------| 

Chorus: "Lets pray for..." (2x) 
e|---------------------------------------------------------------------------| 
B|---------------------------------------------------------------------------| 
G|---------3-3-3-3-3h4-------------------------------------------------------| 
D|4-4-4--4-------------2-2-2-2-2-2-2-2-2-2-2-2-2-2-2-2-----------------------| 
A|4-4-4----------------2-2-2-2-2-2-2-2-2-2-2-2-2-2-2-2-----------------------| 
E|2-2-2----------------0-0-0-0-0-0-0-0-0-0-0-0-0-0-0-0-----------------------| 

Repeat Intro 

Repeat 1st Verse 

Repeat Pre Chorus 

Repeat Chorus 
[ Tab from: http://www.guitartabs.cc/tabs/f/finch/grey_matter_tab_ver_2.html ]
Next Part: "Are you happy..." (You figure out strumming) 
e|---------------------------------------------------------------------------| 
B|---------------------------------------------------------------------------| 
G|-4---8---------------------------------------------------------------------| 
D|-4---8--4------------------------------------------------------------------| 
A|-2---6--4------------------------------------------------------------------| 
E|--------2------------------------------------------------------------------| 

Repeat Chorus 

End On: 
e|--------| 
B|--------| 
G|--4~----| 
D|--4~----| 
A|--2~----| 
E|--------| 

GUITAR 2'S PARTS: 
----------------- 
Intro: (2x) 
e|-------------------------|-------------------------------------------------| 
B|-----0-------0-------0---|-------------------------------------------------| 
G|-----------------------3-|-x-x-x-x-x-x-x-x---------------------------------| 
D|---2---2---2---2---1-----|-x-x-x-x-x-x-x-x---------------------------------| 
A|-4-------4-------2-------|-x-x-x-x-x-x-x-x---------------------------------| 
E|-------------------------|-x-x-x-x-x-x-x-x---------------------------------| 

Verse: (Same as Guitar 1) 

Pre Chorus: "Would it be so bad..." (You figure out strumming) (2x) 
e|---------------------------------------------------------------------------| 
B|---------------------------------------------------------------------------| 
G|-8---10---11---------------------------------------------------------------| 
D|-x----x----x---------------------------------------------------------------| 
A|-6----8----9---------------------------------------------------------------| 
E|---------------------------------------------------------------------------| 

Chorus: (Same as guitar 1) 

Repeat Intro 

Repeat Verse 

Repeat Pre Chorus 

Repeat Chorus 

Next Part: "Are you happy..." (You figure out strumming) 
e|---------------------------------------------------------------------------| 
B|---------------------------------------------------------------------------| 
G|11----8----6---------------------------------------------------------------| 
D|-x----x----x---------------------------------------------------------------| 
A|-9----6----4---------------------------------------------------------------| 
E|---------------------------------------------------------------------------| 

Repeat Chorus 

End On: 
e|-------| 
B|-------| 
G|--4~---| 
D|--4~---| 
A|--2~---| 
E|-------|
Comments