Finch - Grey Matter Chords & Tabs

 

Grey Matter Chords & Tabs

Finch Chords & Tabs

Version: 1 Type: Tab 0 ratings
1 star 2 stars 3 stars 4 stars 5 stars
comments

Grey Matter Tab

Grey Matter
Finch
What it is Burn


Intro
eb------3-0-----3-0-----3---
Bb--0-1-----0-1-----0-1-----
Gb--------------------------
Db--------------------------
Ab--------------------------
Db--------------------------


Verse 1
eb----------------------------------
Bb----------------------------------
Gb--7-7-7---7-7-7-7-7-7-5-5-5-5-5---
Db--7-7-7---7-7-7-7-7-7-5-5-5-5-5---
Ab--5-5-5---5-5-5-5-5-5-3-3-3-3-3---
Db--0-0-0---0-0-0-0-0-0-------------

[ Tab from: http://www.guitartabs.cc/tabs/f/finch/grey_matter_tab.html ]
Verse 2
eb----------------------------------------------------
Bb----------------------------------------------------
Gb--2-2-2-2-2-2-5-5-5-5-5-5-2-2-2-2-2-2-5-5-5-5-5-5---
Db--2-2-2-2-2-2-5-5-5-5-5-5-2-2-2-2-2-2-3-3-3-3-3-3---
Ab--0-0-0-0-0-0-3-3-3-3-3-3-0-0-0-0-0-0-3-3-3-3-3-3---
Db--------------------------------------3-3-3-3-3-3---


Chorus
eb-----------------------------
Bb-----------------------------
Gb---------4-4-4-5-5-5-5-5-5---
Db--5-5-5----------3-3-3-3-3---
Ab--5-5-5----------3-3-3-3-3---
Db--5-5-5----------3-3-3-3-3---


Bridge
eb------------------------------------
Bb------------------5-5-5-5-----------
Gb--5-5-5-5-5-5-5-5-4-4-4-4-7-7-7-7---
Db--5-5-5-5-5-5-5-5-2-2-2-2-5-5-5-5---
Ab--3-3-3-3-3-3-3-3-2-2-2-2-5-5-5-5---
Db------------------2-2-2-2-5-5-5-5---
Comments