Finch - Ender Chords & Tabs

 

Ender Chords & Tabs

Finch Chords & Tabs

Version: 3 Type: Tab 0 ratings
1 star 2 stars 3 stars 4 stars 5 stars
comments

Ender Tab

|----------------------------------------------|
|----------------------------------------------|
|-8--------8---8-------------------------------|
|-x--------x---x-------------------------------|
|-7--------4---6-------------------------------|
|-0--------0---4-------------------------------|
    x12     x6  x6

Pre-Chorus x1
[ Tab from: http://www.guitartabs.cc/tabs/f/finch/ender_tab_ver_3.html ]
|--------------------------------------------------|
|--------------------------------------------------|
|-9------9/11--11---11/13--13----13/16---16----0---|
|-x------x/x---x-----x/x----x-----x/x-----x----0---|
|-7------7/9---9-----9/11--11----11/14---14----0---|
|-0------0/0---0-----0/0----0-----0/0-----0----0---|
   x6           x6           x6            x7   x1
Comments