Finch - Brother Bleed Brother Chords & Tabs

 

Brother Bleed Brother Chords & Tabs

Finch Chords & Tabs

Version: 1 Type: Tab

Brother Bleed Brother Tab

Yes, there are two guitars, but I tabbed this using 1. Therefore if you're a band and 
the 2 guitar version Email me and I'll figure it out.

v = stretch up
* = Palm mute
Intro

--------------------------------|
---5-5--------------------------|
---8-8v-------------------------|
--------------------------------|
--------------------------------|
--------------------------------|

--------------------------------|
--------------------------------|
--------8----6----4----1--------|
--2-----x----x----x----x--------|
--2-----6x8--4x4--2x4--3x3------|
--2x8---------------------------|

Verse

--------------------------------|
--------------------------------|
--------8----6----4----1--------|
--2-----x----x----x----x--------|
--2-----6x8--4x4--2x4--3x3------|
--2x8---------------------------| x2
  *     *    *    *    *

--------------------------------|
--------------------------------|
-------8----7--7----------------|
-------x----x--x--let ring------|
-------6x4--5--5----------------|
--------------------------------| 1st time

--------------------------------|
--------------------------------|
-------8----7-------------------|
-------x----x----let ring-------|
-------6x4--5-------------------|
--------------------------------| 2nd time

[ Tab from: http://www.guitartabs.cc/tabs/f/finch/brother_bleed_brother_tab.html ]
--------------------------------|
--------------------------------|
-------8---9---7----------------|
-------x---x---x----------------|
-------6---7---5----------------|
--------------------------------|

interlude

--------------------------------------|
--------------------------------------|
----2---2---2---2-2--2--2--2--2-------|
--------------------------------------|
--------------------------------------|
--0---0---0---3---3-3--0-0-0---3-ring-|

Chorus
Figure out the rythm, it aint that hard >=)
--------------------------------|
--------------------------------|
--4--4-6---4--10-12-------------|
--2--x-x---2--x--x--------------|
--2--6s8---2--8s-10-------------|
--2--------2--------------------|

Verse
--------------------------------|
--------------------------------|
--------8----6----4----1--------|
--2-----x----x----x----x--------|
--2-----6x8--4x4--2x4--3x3------|
--2x8---------------------------| (faint in the background)
  *     *    *    *    *

--------------------------------|
--------4------4----------------|
--------------------------------|
--2--------2--------------------|
--2--------2--------------------|
--2--------2--------------------| Repeat as necessary.

--------------------------------|
--------4------4----------------|
---------------------7-------4--|
--2--------2------s5---5--------|
--2--------2--------------------|
--2--------2--------------6-----|
outro
--------------------------------|
--------------------------------|
-2--4--6--8---6-----------------|
-x--x--x--x---x-----------------|
-4--6--8--10--8-----------------|
--------------------------------|