Finch - Bitemarks And Bloodstains Chords & Tabs

 

Bitemarks And Bloodstains Chords & Tabs

Finch Chords & Tabs

Version: 1 Type: Tab 0 ratings
1 star 2 stars 3 stars 4 stars 5 stars
comments

Bitemarks And Bloodstains Tab

tabbed by adam sisco
this is a sick song.
tuning:DADGBE
tune half a step down


guitar 1 intro

-4-let-it-ring...-------------4-let-it-ring...------------------|
----------------------------------------------------------------|
----------------------------------------------------------------|
-----------------------------------------------------xxxxxxxxxx-|
-----------------------------------------------------xxxxxxxxxx-|
-----------------------------------------------------xxxxxxxxxx-|


guitar 2 intro

----------------------------------------------------------------|
----------------------------------------------------------------|
----------------------------------------------------------------|
-----2---4-2-----------2---4-2-----------2---4-2-----xxxxxxxxxx-|
---4---4-----4-------4---4-----4-------4---4-----4---xxxxxxxxxx-|
-4-----------------4-----------------4---------------xxxxxxxxxx-|

VERSE 1

guitar 1 verse 1

-----------------------------------------------------|
---------------------------------------------0h2-----|
--------3h4--------3h4--3333---4h6p4--1111-----------|
---6666-------6666-----------4-------------2---------|10x
-4----------4----------------------------------------|
-----------------------------------------------------|

then be4 the chorus do this

-----------------------|
-------------7---------|
-----4---------4-------|
-------4---------4-----|
-4-------4-4-------4---|
-----------------------|

guitar 2 verse 1

ALL PALM MUTED
---------------------------------------------|
---------------------------------------------|
--------3-4--------3-4--3333------3333-------|
---6666-------6666-----------4444------4444--| 6x
-4----------4--------------------------------|
---------------------------------------------|

then *not palm muted*

---------------------------------------------|
---------------------------------------------|
-------4-----3---1-------------4-----3---1---|
---------------4---2-------------------4---2-|
-4-----------------------4-------------------|
---------------------------------------------|

then palm muted
[ Tab from: http://www.guitartabs.cc/tabs/f/finch/bitemarks_and_bloodstains_tab.html ]
---------------------------------------------|
---------------------------------------------|
--------3-4--------3-4--3333------3333-------|
---6666-------6666-----------4444------4444--| 2x
-4----------4--------------------------------|
---------------------------------------------|

then *not palm muted*

---------------------------------------------|
---------------------------------------------|
-------4-----3---1-------------4-----3---1---|
---------------4---2-------------------4---2-|
-4-----------------------4-------------------|
---------------------------------------------|


Chorus


guitar 1 do it twice.

--------------------------------------0--0--0--0--0--0--0------------------|
------------------------------------16-16-16-16-16-14-14-------------------|
---------------------------------------------------------14-14-14-11-11-11-|
-777777777777-0000000000-7777777777----------------------------------------|
-777777777777-0000000000-7777777777----------------------------------------|
-777777777777-0000000000-7777777777----------------------------------------|

guitar 2

------------------------------------------------------------------|
------------------------------------------------------------------|
------------------------------------------------------------------|
7777777777-0000000000-7777777777-6666666666-----------------------|
7777777777-0000000000-7777777777-6666666666-----------------------| 2x
7777777777-0000000000-7777777777-6666666666-----------------------|


VERSE 2


guitar 1 verse 2

-----------------------------------------------------|
---------------------------------------------0h2-----|
--------3h4--------3h4--3333---4h6p4--1111-----------|
---6666-------6666-----------4-------------2---------|10x
-4----------4----------------------------------------|
-----------------------------------------------------|

-----------------------|
-------------7---------|
-----4---------4-------|
-------4---------4-----|
-4-------4-4-------4---|
-----------------------|

guitar 2 verse 2

-----------------------------------------------------|
-----------------------------------------------------|
-----------------------------------------------------|2x
-----2---4-2-----------2---4-2-----------2---4-2-----|
---4---4-----4-------4---4-----4-------4---4-----4---|
-4-----------------4-----------------4---------------|

then go

-4-----------4------------------|
---5-4-5-4-----5-4-5-44---------|
-----------6------------6-4-5-6-| SORRY IM OUT OF TIME figure the rest out on ur own
Comments