Finch - Awake Chords & Tabs

 

Awake Chords & Tabs

Finch Chords & Tabs

Version: 3 Type: Tab 0 ratings
1 star 2 stars 3 stars 4 stars 5 stars
comments

Awake Tab

Finch - Awake (7 string)
Transcribed by Stephen Saldivar

e|-18------------------------------------------------------------------
b|---18--18----18----18------------------------------------------------
G|-----18--18----18----18----------------------------------------------
D|-----------18----18----18--------------------------------------------
A|---------------------------------------------------------------------
E|---------------------------------------------------------------------
B|---------------------------------------------------------------------

e|---------------------------------------------------------------------
b|---------------------------------------------------------------------
G|---------------------------------------------------------------------
D|-----1010----------------------1010----------------------------------
A|---88-----4-44-4-44-4-4444---88-----4-44-4-44-4-4444-----------------
E|-66-------4-44-4-44-4-4444-66-------4-44-4-44-4-4444-----------------
B|----------2-22-2-22-2-2222----------2-22-2-22-2-2222-----------------

e|---------------------------------------------------------------------
b|---------------------------------------------------------------------
G|---------------------------------------------------------------------
D|-333333333333444444444444--------------------------------------------
A|-33333333333344444444444444444444444444444444444---------------------
E|-11111111111122222222222244444444444444444444444---------------------
B|-------------------------22222222222222222222222---------------------
[ Tab from: http://www.guitartabs.cc/tabs/f/finch/awake_tab_ver_3.html ]
e|---------------------------------------------------------------------
b|---------------------------------------------------------------------
G|---------------8--8--8--8--------------------------------------------
D|-3-----4--------6--6--6--6-------------------------------------------
A|-3-----4-----4---4--4--4---------------------------------------------
E|-1-----2-----4-------------------------------------------------------
B|-------------2-------------------------------------------------------

e|---------------------------------------------------------------------
b|---------------------------------------------------------------------
G|-3-1---------3-1---------3-1-----------------------------------------
D|-----4-3-1-------4-3-1-------4-3-1---3-1---3-1-----------------------
A|-----------4-----------4-----------4-----4-----4---------------------
E|---------------------------------------------------------------------
B|---------------------------------------------------------------------

e|-1////////18---------------------------------------------------------
b|---------------------------------------------------------------------
G|---------------------------------------------------------------------
D|---------------------------------------------------------------------
A|---------------------------------------------------------------------
E|---------------------------------------------------------------------
B|---------------------------------------------------------------------

   This is where he says awake a bunch of times
e|---------------------------------------------------------------------
b|---------------------------------------------------------------------
G|---------------------------------------------------------------------
D|---------------------------------------------------------------------
A|1010101010101010101010101010101010101010101010101010101010101010-----
E|-8-8-8-8-8-8-8-8-8-8-8-8-8-8-8-8-8-8-8-8-8-8-8-8-8-8-8-8-8-8-8-8-----
B|-6-6-6-6-6-6-6-6-6-6-6-6-6-6-6-6-6-6-6-6-6-6-6-6-6-6-6-6-6-6-6-6-----
Comments