Finch - Awake Chords & Tabs

 

Awake Chords & Tabs

Finch Chords & Tabs

Version: 1 Type: Bass Tab

Awake Bass Tab

____________________________
Artist: Finch               |
Song: Awake                 |
Album: What It Is To Burn   |
____________________________|

Standard Tuning

Intro: 
Play each note atthe beginning of the high pitched riff, and play
the 5th note when you hear the drums come in

g|-----------------------------------------------|
d|-----------------------------------------------|
a|-----------------------------------------------|
e|--6----------6---------6-----------6--------6--|

Pre-Verse:
Repeat x4
g|-----------------------------------------------|
d|-----------------------------------------------|
a|-----------------------------------------------|
e|--6-9-9-9-9-9-9-9-9-9-9-9-9--------------------|

Verse:
1st time play this
g|-----------------------------------------------|
d|-----------------------------------------------|
a|-----------------------------------------------|
e|--6------------9-----------6-----------1-------|
[ Tab from: http://www.guitartabs.cc/tabs/f/finch/awake_btab.html ]
Verse:
2nd time
g|-----------------------------------------------|
d|-----------------------------------------------|
a|-----------------------------------------------|
e|--6-9-9-9-9-9-9-9-9-9-9-9-9--------------------|

Chorus:
repeat x4

g|-------------------------------------------------------------|
d|-------------------------------------------------------------|
a|--------------------------4--4--4--4--4--4--4--4--4--4--4--4-|
e|-1-1-1-1-1-1-2-2-2-2-2-2-------------------------------------|

Pre-Verse

Verse 1st time

Verse 2nd time

Chorus x4


Part Before Bridge
repeat x4

g|-------------------------------------------------------------|
d|-------------------------------------------------------------|
a|--------------------------4--4--4--4--4--4--4--4--4--4--4--4-|
e|-1-1-1-1-1-1-2-2-2-2-2-2-------------------------------------|

Bridge
(Im not sure how many times you play it, 
just play from beginning to bridge til the end)

g|-----------------------------------------------|
d|-----------------------------------------------|
a|-----------------------------------------------|
e|--6-6-6-6-6-6-6-6-6-6-6-6-9-9-9-9-9-9-9-9-9-9-9|



Repeat Chorus x 8

All right, thats the whole song, if you have questions, email me at NOCTOAN1000@aol.com