Filthies - Insomnia Chords & Tabs

 

Insomnia Chords & Tabs

Filthies Chords & Tabs

Version: 1 Type: Tab 0 ratings
1 star 2 stars 3 stars 4 stars 5 stars
comments

Insomnia Tab

   
Song:Insomnia
Band:The Filthies (www.thefilthies.com)
Tuning:EADGBE (Standard Tuning)
Speed:Moderatly Fast
Type of Music:Punk
Key:/(Slide Down
Key:(P.M.) (Palm Mute)
Tabbed By:Jeff Blanchard
E--------------------------------------------------------------------|
B--------------------------------------------------------------------|
G--------------------------------------------------------------------|   X2
D---------------------------------555555555555555--------------------|
A-777777777777777-333333333333333-333333333333333-555555555555555----|
E-555555555555555-111111111111111-----------------333333333333333----|
(P.M)
E------------------------------------------------------|
B------------------------------------------------------|
G----------10101010101010-------------------99999999---|
D----------8-8-8-8-8-8-8-8------------------77777777---|  X2
A-77777777-----------------1010101010101010------------|
E-55555555-----------------8-8-8-8-8-8-8-8-------------|
On the end of the second time play this.
E-------------|
B-------------|
G-------------|
D-10-9--------|
A-8--7-10-9-7-|
E------8--7-5-|
[ Tab from: http://www.guitartabs.cc/tabs/f/filthies/insomnia_tab.html ]
E--------------------------------------------------------------------|
B--------------------------------------------------------------------|
G--------------------------------------------------------------------|   X2
D---------------------------------555555555555555--------------------|
A-777777777777777-333333333333333-333333333333333-555555555555555----|
E-555555555555555-111111111111111-----------------333333333333333----|
(P.M)
E------------------------------------------------------|
B------------------------------------------------------|
G----------10101010101010-------------------99999999---|
D----------8-8-8-8-8-8-8-8------------------77777777---|  X2
A-77777777-----------------1010101010101010------------|
E-55555555-----------------8-8-8-8-8-8-8-8-------------|
On the end of the second time play this.
E-------------|
B-------------|
G-------------|
D-10-9--------|
A-8--7-10-9-7-|
E------8--7-5-|

E------------|
B------------|
G------------|
D------------| X3
A--7---3-3-/-|
E-5-5-1-1-1/-|
Slide Back To Beginning
After Third Time Slide To
E-----------|
B-----------|
G-----------|
D-----------|
A-5-55555555
E-3-33333333

E------------------|
B------------------|
G------------------|
D------------------|  X2
A-7777777-77777777-|
E-5555555-55555555-|
          (P.M.)
After The Second Time Play
E----------------------|
B----------------------|
G----------------------|
D----------------------|
A-777777777777777777777
E-555555555555555555555

E------------------------------------------------------|
B------------------------------------------------------|
G----------10101010101010-------------------99999999---|
D----------8-8-8-8-8-8-8-8------------------77777777---|  X2
A-77777777-----------------1010101010101010------------|
E-55555555-----------------8-8-8-8-8-8-8-8-------------|
On the end of the second time play this.
E-----------------------------------|
B-----------------------------------|
G-----------------------------------|
D-10-9------10-9------10--9---------|
A-8--7-10-9-8--7-10--9-8--7-10-9-7--|
E------8--7-------8--7------8--7-5--|
And Thats It If You Need The Rythem Go To www.thefilthies.com Then To Audio.
Comments