Filter - White Like That Chords & Tabs

 

White Like That Chords & Tabs

Filter Chords & Tabs

Version: 1 Type: Bass Tab 0 ratings
1 star 2 stars 3 stars 4 stars 5 stars
comments

White Like That Bass Tab

Here's the bass tabs for white like that as best as I can tell. I think its all here and all pretty correct so have fun. The timings all you need…

Filter
Bass tabs- white like that
Short bus
Tabed by Kevin Donovan
Drop D tuning

Intro drums…bass comes in with the guitars…

G-------------------------------------the first part of the song is just the open d a few times.
D-------------------------------------
A-------------------------------------
D----0-------------------------------
        [--------------------------------]

then when the lyrics start…
G--------------------------------------
D--------------------------------------
A--------------------------------------
D---0---------------3-----------------
       [-----------]     [----------------]
[ Tab from: http://www.guitartabs.cc/tabs/f/filter/white_like_that_btab.html ]
"White like that…"
G-----------------------------------------------
D-----------------------------------------------
A-----------------------------------------------
D-3/5-5--5--0-3/5--5--5---0--3--0--0-

"so who's gonna loose…"
G-----------------------------------------------
D-----------------------------------------------
A-----------------------------------------------
D-5--5--5--5---3--3--3--3---0--------------
                                            [--------------]
This next part is really quiet but they play it live and you can just hear it on the album…
"call me white trash…"
G------------------------------------------
D------------------------------------------
A------------------------------------------
D--3-3-3-3-3-3--0-0-0-0-0-0----------

Near the end of the song there is a slight change in the "who's gonna loose…" part…
G---------------------------------------------------------
D---------------------------------------------------------
A---------------------------------------------------------
D-5--5--5--5--3--3--3--3--0--0--10-10-10-10------

And that's all! Any comments or questions e-mail me at bigmaxx777@aol.com.  


Comments